» » »

Band Of Horses, Detlef Schrempf Tabs (ver.2)

Artists:  A B C D E F G H I J K L M N O P Q R S T U V W X Y Z # 

Detlef Schrempf Tabs (ver.2)

Band Of Horses Tabs
 Rating:
4/5 (4 votes)
Detlef Schrempf lessons Tabs too difficult? Try these video lessons and learn fast
                -------------------------------------------------------------------------------
-------------------------------------------------------------------------------
Tuning: Standard

This tab is not exactly the way the song is played. This is my version transcribed 
for one guitar and is mainly based on the lead guitar although I have made some 
changes and opened the song up for a better fit on one acoustic (try to keep all 
strings ringing constantly). Listen to the song and use this tab as inspiration or 
your play (if you wish). Enjoy!

Opening lick

e|-2po----------------------------------------------------------------------|
B|-----4-2------------------------------------------------------------------|
G|--------------------------------------------------------------------------|
D|-----------then straight into 'pattern A'---------------------------------|
A|--------------------------------------------------------------------------|
E|-0------------------------------------------------------------------------|

Pattern A (Intro & verse)

e|---------------2----0-------------------------------0---------------------|
B|--------2---------------4--------------2----------------------------------|
G|------4-------------------4----------4----------4------4------------------|
D|----4------------------------------4--------4\6---6---6-------------------|
A|-4-----------------2------------4-----------------------------------------|
E|-2-------------0--0---0---------2-----------------------0-----------------|

Pattern B (Chorus)

e|-2--2--2--2--2--2--2--2--2--2--2--2--2--2--2--2--0--0--2--2--2--2--2--2---|
B|--0--0--0--0--0--0--0--0--0--0--0--0--0--0--0--0--0--0--0--0--0--0--0--0--|
G|---4--4-----4--4-----4--4-----4--4-----4--4-----4--4-----4--4-----4--4----|
D|--------------------------------------------------------------------------|
A|-2--------2--------2--------2--------------------------2--------2---------|
E|-------------------------------------0--------0---------------------------|

Chorusend lick

e|-----0--------0--------------0--------------------------------------------|
B|-------4p0------4--4-----------4p0----------------------------------------|
G|-----------------4--4-----------------------------------------------------|
D|---------------------4----------------------------------------------------|
A|-2\4-------2------2------2\4-------2--------------------------------------|
E|-----------0------0----0-----------0--------------------------------------|

Order of play:

Opening lick
Intro     (Pattern A one time without lyrics)

Verse 1   (Pattern A two times with lyrics)
	  And take a little walk when the worst is to come
  When I saw you looking like I never thought
	  And say you're at a loss or forgot 
	  that words can do more than harm

Prechorus (Pattern A one time with lots of aaaah-iing)

Verse 2   (Pattern A two times with lyrics)
	  The town is gonna talk, but these people do not
	  See things through to the very minimal
	  But what's it gonna cost to be gone?
	  If we see you like I hoped we never would

Prechorus (Pattern A one time with lots of aaaah-iing)

Chorus	  (Pattern B two times with lyrics)
	  When eyes can't look at you any other way,
	  Any other way, any other way
	  When eyes can't look at you any other way,
	  Any other way, any other way

Chorusend lick

Intro again (no lyrics)

Verse 3   (Pattern A two times with lyrics)
	  So take it as a song or a lesson to learn
	  And sometime soon be better than you were
	  If you say you're gonna go, then be careful
	  And watch how you treat every living soul

Prechorus (Pattern A one time with lots of aaaah-iing)

Chorus	  (Pattern B two times with lyrics)
	  My eyes can't look at you any other way,
	  Any other way, any other way
	  When eyes can't look at you any other way,
	  Any other way, any other way

Extended chorusend lick (play first half of the lick 3 times and then finish it 
off as transcribed, except end on a B instead of Em).


| /  slide up
| \  slide down
| h  hammer-on
| p  pull-off
| ~  vibrato
| +  harmonic
| x  Mute note
===============================================================================
            
Submit corrections

comments powered by Disqus
↑ Back to top | Band Of Horses Tabs for Detlef Schrempf. Lyrics for acoustic guitar and electric guitar. Tablatures and chords are parodies/interpretations of the original songs. You may use it for private study, scholarship, research or language learning purposes only