» » »

Its A Wonderful Life Tabs (ver.2)

Artists:  A B C D E F G H I J K L M N O P Q R S T U V W X Y Z # 

Its A Wonderful Life Tabs (ver.2)

Bandits Of The Acoustic Revolution
Rating:
4/5 (5 votes)

Hard to play? Try these video lessons and learn fast.
                BOTAR - It's a Wonderful Life

Tuning: Standard (EADGBe)

Intro/Verse:
  I didn't put the strumming pattern cause its too complicated to write out
     C      Dm     G   
e|---0-------1-----3-|
B|---1-------3-----3-|
G|---0-------2-----0-|
D|---2-------0-----0-|
A|---3-------0-----2-|
E|---0-------0-----3-|

Fill
e|--------------|
B|--------------|
G|--------------|
D|--------------|
A|----0-2-0-----|
E|--3-----------|


Chorus
    F   G  Am        F   G   C G Am     G   C
e|--1---3---0--|--|--1---3---0-3-0------3---0----------|
B|--1---3---1--|--|--1---3---1-3-1------3---1----------|
G|--2---0---2--|--|--2---0---0-0-2------0---0----------|
D|--3---0---2--|--|--3---0---2-0-2------0---2----------|
A|--0---2---0--|--|--0---2---3-2-0------2---3----------|
E|--0---3---0--|x2|--0---3---0-3-0------3---0----------|
                              *Fast


Solo: 
e|----------------------------------------------|
B|----------------------------------------------|
G|--17-16---------------------------------------|
D|---------19-17-15-14-------12-12-12/14-12-----|
A|---------------------17-15--------------------|
E|----------------------------------------------|

e|---------------------------------------------------------------|
B|---------------------------------------------------------------|
G|---------------------------------------------------------------|
D|-12/19-19-19--17-17-17--15-15-15--14-14-14--12-10-10-10-10/12--|
A|---------------------------------------------------------------|
E|---------------------------------------------------------------|

e|---------------------------------------------------------------|
B|---------------------------------------------------------------|
G|--17-16-14-17--------------------------------------------------|
D|---------------14h15-------------------------------------------|
A|---------------------17-19-15--15h17----15-17-17--15h17--------|
E|-------------------------------------17-----------------17-----|

e|--------------------------------------|-----------------------|
B|--------------------------------------|-----------------------|
G|--------------------------------------|---12-12-12-12-10---9--|
D|----------10h12-12/14--12-10-12-10----|---14-14-14-14-12--10--|
A|---10h12---------------------------12-|-----------------------|
E|--------------------------------------|-----------------------|

enjoi, plz rate i worked rally hard :)
            
Hard to play? Try these video lessons and learn fast. | Correct




comments powered by Disqus
↑ Back to top | Tablatures and chords are parodies/interpretations of the original songs. You may use it for private study, scholarship, research or language learning purposes only