>
 >
You

You Guitar Tabs

Bamboo - You chords, tabs, tablatures, lyrics

Guitar lessons | Add/correct | Request | Top 50 tabs Artists:  A B C D E F G H I J K L M N O P Q R S T U V W X Y Z 0-9

You Guitar Tabs – Bamboo

CD, Sheet music, Poster

Do you like You? Share with your friends now
Tabs
Transcribe by: Erwin Serrano Quezon City/Pangasinan 


Intro: G Dm Am C

                                
E|----------------------------------------------------------------------|
B|----------------------------------------------------------------------|
G|----------------------------------------------------------------------|
D|------5-----5---------------------------7-----7-------10-----10-------|
A|------5-----5---------12-------12-------7-----7-------10-----10-------|
E|--3-3-3-3-3-3-3\10-10-10-10-10-10---5-5-5-5-5-5-5-8-8-8--8-8-8--------|

                                
E|----------------------------------------------------------------------|
B|----------------------------------------------------------------------|
G|----------------------------------------------------------------------|
D|------5-----5---------------------------7-----7-------10-----10-------|
A|------5-----5---------12-------12-------7-----7-------10-----10-------|
E|--3-3-3-3-3-3-3\10-10-10-10-10-10---5-5-5-5-5-5-5-8-8-8--8-8-8--------|

                                
E|----------------------------------------------------------------------|
B|----------------------------------------------------------------------|
G|----------------------------------------------------------------------|
D|------5-----5---------------------------7-----7-------10-----10-------|
A|------5-----5---------12-------12-------7-----7-------10-----10-------|
E|--3-3-3-3-3-3-3\10-10-10-10-10-10---5-5-5-5-5-5-5-8-8-8--8-8-8--------|

 
 
E|----------------------------------------------------------------------|
B|----------------------------------------------------------------------|
G|----------------------------------------------------------------------|
D|------5-----5---------------------------------------------------------|
A|------5-----5----8-----8-----8------3-----3---3---7-----7-----7-------|
E|--3-3-3-3-3-3-3\10-10-10-10-10-10---5-5-5-5-5-5-5-8-8-8-8-8-8-8-------|



verse 1
guitar 1
E|---------------------------------------------------------------------|
B|---------------------------------------------------------------------|
G|---------------------------------------------------------------------|
D|---------------------------------------------------------------------|
A|-------5------5------8-----8---------8--------3-----3-----3----------|
E|---3-3-3--3-3-3-----10-10-10-10--10-10-10-----5-5-5-5-5-5-5-5--------|
    Pain            Leads to freedom     It's everyone's opinion

E|---------------------------------------------------------------------|
B|---------------------------------------------------------------------|
G|---------------------------------------------------------------------|
D|---------------------------------------------------------------------|
A|---7-----7-----7-----------------------------------------------------|
E|---8-8-8-8-8-8-8-----------------------------------------------------|
   not my own  

E|---------------------------------------------------------------------|
B|---------------------------------------------------------------------|
G|---------------------------------------------------------------------|
D|---------------------------------------------------------------------|
A|-------5------5------8-----8---------8--------3-----3-----3----------|
E|---3-3-3--3-3-3-----10-10-10-10--10-10-10-----5-5-5-5-5-5-5-5--------|
    Fame    Crystal kingdom           It's everybody's mission    

E|---------------------------------------------------------------------|
B|---------------------------------------------------------------------|
G|---------------------------------------------------------------------|
D|---------------------------------------------------------------------|
A|---7-----7-----7-----------------------------------------------------|
E|---8-8-8-8-8-8-8-----------------------------------------------------|
    not my own


E|--------------3-------3------------1-------1---------------------------|
B|--------------3-------3------------3-------2---------------------------|
G|--------------0-------0-------2-2--2--2-2--3--2------------------------|
D|------------------------------0-0-----0-0-----0------------------------|
A|-------2-2-2-----2-2-----2------------- -------------------------------|
E|-------3-3-3-----3-3-----3---------------------------------------------|
 Not too young       Not that old   Neither bitter  Neither cold



E|-------------0-------0---------------0-------2------------------------|
B|-------------1-------1---------------1-------1------------------------|
G|-------------2-------2---------------0-------0------------------------|
D|--------2-2--2--2-2--2--2-----2-2-2-----2-2-----2---------------------|
A|--------0-0-----0-0-----0-----3-3-3-----3-3-----3---------------------|
E|----------------------------------------------------------------------|
  Just an optimist      Who's become a little cynical

E|--------------3-------3------------1-------1---------------------------|
B|--------------3-------3------------3-------2---------------------------|
G|--------------0-------0-------2-2--2--2-2--3--2------------------------|
D|------------------------------0-0-----0-0-----0------------------------|
A|-------2-2-2-----2-2-----2------------- -------------------------------|
E|-------3-3-3-----3-3-----3---------------------------------------------|
  Under gloom      Don't be afraid

E|----------------------------------------------------------------|
B|-----------------------------------------------------------------|
G|-----------------------------------------------------------------|
D|----------7---7-----------------10------------------------------------|
A|----------7---7-----------------10-10-10-10-10-10-10-----------------|
E|----------5---5------------------8--8--8--8--8--8--8------------------|
 Love is stronger than it all  Stronger than this soul divided


Chorus:

E|-------------------------------------------------------------------|
B|-------------------------------------------------------------------|
G|--------------------------------------------7--7--7--7--7--7--7--7-|
D|--5----5----5----5----5----5----5----5------7--7--7- 7--7--7--7--7-|
A|--5----5----5----5----5----5----5----5------5--5--5 -5--5--5--5--5-|
E|--3----3----3----3----3----3----3----3------5--5--5--5--5--5--5--5-|
    All these years I never really know what love is
E|------------------------------------------------------------------|
B|------------------------------------------------------------------|
G|------------------------------------------------------------------|
D|-------7-7-7-7-7-7-7-7-----------10--10--10--10--10--10--10--10---|
A|-------7-7-7-7-7-7-7-7-----------10--10--10--10--10--10--10--10---|
E|-------5-5-5-5-5-5-5-5-----------8---8---8---8---8---8---8---8---pause-|
 Til I found you...                found you  

Repeat chorus:


(same chords frm verse 1)

This new faith where the altar is the bed
Where the church feels like a motel room
Where gold turns to lead

guitar 2
E|-----3---------5----5-----5---5-----5-----5---3-----3-----3----------|
B|-----3-pause-----5-5--5-5---5---5-5---5-5---5---3-3---3-3------------|
G|-----4---------------------------------------------------------------|
D|---------------------------------------------------------------------|
  Hello
Do you believe
Love is stronger than us all
Stronger than two worlds colliding

 G D               Am                       C
I-you burn like fire from below sears the flesh feeds the souls desire...
 G  D             Am            C
I-you stronger than before rising through the dust like a phoeni

Repeat Chorus

Adlib:
Guitar 1
E|--7-----7-----7---7-----7-----7-----7-----7-----7-----7-----7-----7--|
B|----8-8---8-8---8---7-7---7-7---7-8---8-8---8-8---8-9---9-9---9-9----|
G|---------------------------------------------------------------------|
D|---------------------------------------------------------------------|
A|---------------------------------------------------------------------|
E|---------------------------------------------------------------------|
guitar 1

E|-------7-------7-------7--------8\10--8--5--5\8--8\6---5-------------|
B|--9-10---10-10---10-10---10-10--8\10--8--5--6\10-10\8--6-------------|
G|---------------------------------------------------------------------|
D|---------------------------------------------------------------------|
A|---------------------------------------------------------------------|
E|---------------------------------------------------------------------|
guitar 2
E|---------------------------------------------------------------------|
B|--------------------------------13-------13-------13-------13--------|
G|-----------------------------13----13-13----13-13----13-13-----------|
D|---------------------------------------------------------------------|
A|---------------------------------------------------------------------|
E|---------------------------------------------------------------------|


Adlib 2

guitar 2 

E|---------------------------------------------------------------------|
B|--10\12pull---12\13\12h10\8------10\12pull---12\13\12h10\8-----------|
G|-----------------------------9------------------------------9--------|
D|---------------------------------------------------------------------|
A|---------------------------------------------------------------------|
E|---------------------------------------------------------------------|


E|---------------------------------------------------------------------|
B|---10\12pull---12\13\12h10\8-----------------------------------------|
G|---------------------------------------------------------------------|
D|-----------------------------9---------------------------------------|
A|---------------------------------------------------------------------|
E|---------------------------------------------------------------------|
 
Guitar 2 Repeat 2x
E|--15-------15-------15----17-------17-------17-------17------17-------|
B|-----15-15----15-15----15----17-17----17-17----17-17---17-17----17----|
G|----------------------------------------------------------------------|
D|----------------------------------------------------------------------|
A|----------------------------------------------------------------------|
E|----------------------------------------------------------------------|


E|----15-------15-------15----------------------------------------------|
B|-------15-15----15-15----15------------------------------------------|
G|----------------------------------------------------------------------|
D|---------------------------------------------------------------------|
A|----------------------------------------------------------------------|
E|---------------------------------------------------------------------|
 


repeat chorus 4x then fade


 
friendster ko. or u can also mek ur call or txt (09223006427)
vote plz!!! tnxx





Comments


Popular Bamboo tabs & chords
I Dont Wanna Wait In Vain For Your Love Bass Tabs
Kailan Bass Tabs
Umagang Kay Ganda Bass Tabs
Alive Tabs
Hallelujah 5 Tabs
I-You Tabs
Mr. Clay Tabs
Umagang Kay Ganda 2 Tabs
Masaya Ukulele
Muli Ukulele


Song lyrics



↑ Back to top | Tablatures and chords are parodies/interpretations of the original songs. You may use it for private study, scholarship, research or language learning purposes only
© 2014 AZChords.com Contact us | Privacy policy | DMCA | Add/correct tabs | Request tabs | Top 50 tabs