>
 >
These Days

These Days Bass Tabs

Bamboo - These Days chords, tabs, tablatures, lyrics

Guitar lessons | Add/correct | Request | Top 50 tabs Artists:  A B C D E F G H I J K L M N O P Q R S T U V W X Y Z 0-9

These Days Bass Tabs – Bamboo

CD, Sheet music, Poster

Do you like These Days? Share with your friends now
Bass TabsTabsTabs v2
These Days Bass Tab



this is my first tab, so I hope you enjoy it. putsa ubos ang oras ko dito.

Listen to the song for correct timing. Sorry, pero taena wala kong alam sa time signature.

Tuning: Standard

Intro

G|----------------------------------------------------------------------------------------------------|
D|---------------5--------------3----------------5-----------7h9--7\3/5-------------------------------|
A|----------------------------------------------------------------------------------------------------|
E|-3-3---3--3--3---1-1---1--1--1----3-3---3--3--3---5-5---5-5-----------------------------------------|

G|----------------------------------------------------------------------------------------------------|
D|--------------5---------------3---------------------------------------------------------------------|
A|----------------------------------------------------------------------------------------------------|
E|-3-3---3--3--3---1-1---1--1--1---3-3---3--3--3-0-1--------------------------------------------------|

Verse 1

G|----------------------------------------------------------------------------------------------------|
D|----------------------------------------------------------------------------------------------------|
A|----------------------------------------------------------------------------------------------------|
E|-3-3---3-3-3--3-3--1-1---1-1-1--1--1-3-3---3-3-3--3-3--1-1---1-1-1--1-1-----------------------------|

G|----------------------------------------------------------------------------------------------------|
D|-----------------5-----------------------------------5----------------------------------------------|
A|----------------------------------------------------------------------------------------------------|
E|-3-3---3-3-3--3-3---1-1--1-1-1--1-1-x-3-3--3-3-3--3-3---1-1--1-1-1--1-1-----------------------------|

G|----------------------------------------------------------------------------------------------------|
D|----------------------------------------------------------------------------------------------------|
A|----------------------------------------------------------------------------------------------------|
E|-3-3---3-3-3--3-3--1--------------------------------------------------------------------------------|

Chorus

G|----------------------------------------------------------------------------------------------------|
D|----------------------------------------------------------------------------------------------------|
A|----------------------------------------------------------------------------------------------------|
E|-3-3--3-3-3-3-3--5--5-5-5-5-5--8-8--8-8-8--8\3-3-3/8-1-3--------------------------------------------|

G|----------------------------------------------------------------------------------------------------|
D|----------------------------------------------------------------------------------------------------|
A|------------------------------------------------------8/10\3----------------------------------------|
E|-3-3--3-3-3-3-3--5--5-5-5-5-5--8-8--8-8-8--8\3-3-3/8------------------------------------------------|

Verse 2

G|----------------------------------------------------------------------------------------------------|
D|----------------5-----------------5------------------------------------3h5--------------------------|
A|------------------------------------------------------------0-0-0-1-1-1-----------------------------|
E|-3-3---3-3-3-3-3---1-1---1-1-1-1-1---3-3---3-3-3-3-3---1-1-1----------------------------------------|

G|----------------------------------------------------------------------------------------------------|
D|----------------5-------------7-----------------5---------------------------------------------------|
A|----------------------------------------------------------------------------------------------------|
E|-3-3---3-3-3-3-3---5-5---5-5-5---3-3---3-3-3-3-3---1------------------------------------------------|

Chorus

G|----------------------------------------------------------------------------------------------------|
D|----------------------------------------------------------------------------------------------------|
A|----------------------------------------------------------------------------------------------------|
E|-3-3--3-3-3-3-3--5--5-5-5-5-5--8-8--8-8-8--8\3-3-3/8-1-3--------------------------------------------|

G|----------------------------------------------------------------------------------------------------|
D|----------------------------------------------------------------------------------------------------|
A|----------------------------------------------------------------------------------------------------|
E|-3-3--3-3-3-3-3--5--5-5-5-5-5--8-8--8-8-8--8\3-3-3/8-1-3--------------------------------------------|

Bridge

G|----------------------------------------------------------------------------------------------------|
D|-------7---------------9--------------22-33-55----------------------6/8-8-8-8-8-8-8-8---------------|
A|----7-----7---------9-----9--------33---------------------------------------------------------------|
E|-5-----------5-6-7-----------7-8-----------------1-1-1-1-1-1-1-1-1----------------------------------|

Instrumental

G|---------------------------------------3h4h5p4p3p0------------------------------------------------4--|
D|------------------------------------3h5-----------------------------9-7-5-7-3-5-----3----------3-5---|
A|-------------------------------------------------------------------------------------3------2-3------|
E|-3-3---3-3-3-3-3--1-1---1-1-1--3-3-----------------1--3--5--7/8-3-3-------------1-1------3-5---------|

Chorus

G|----------------------------------------------------------------------------------------------------|
D|----------------------------------------------------------------------------------------------------|
A|--------------------------3/------------------------------------------------------------------------|
E|------3---------5------------------------3-3---3-3-3-3---5-5---5-5-5-5---8-8---8-8-8-8\3-3/8-1-3----|

Post-Chorus

G|--------------------------------------3h4h5-0--------------------------------------------------------|
D|-----5-5-3---3-5--------------3------5------------------------------5-0-2-3-5-----------3------------|
A|----------5------------------------------------------------------------------------------------------|
E|-3-3-------------1-1--1-1-1-1----3-3---------------5-5---8-7-8--3-3-----------1-1-1-1-1----3-3-------|

G|-------3h5p3-----------------------------------------------------------------------------------------|
D|-----5------5---------------------------3-5----------------------------------------------------------|
A|-5-7--------------------0-0-0-0-1-1-1-1--------------------------------------------------------------|
E|----------------1-1-1-1------------------------------------------------------------------------------|

Ito yung parang verse

G|----------------------------------------------------------------------------------------2/5-3--------|
D|-------------------3--------------------------------------------3-3-----------------3-2-------3-5----|
A|-------------------------------------------------------------------------------2-3-------------------|
E|-3--3--1--1--3--3-----1--3--3--1--1--3--3--1-1-1-2-3--3-3-3-3-3-----1-1-1--3-3-----------------------|

G|--------------------------------------------------------------------------------------2/-------------|
D|-------------3-3----------------------------------------------3-3-3-3-2-2-2-2-3-3-3-3----------------|
A|--------------------------------------2-2-2-2-3-3-3-3-5-5-5-5----------------------------------------|
E|-3--3--3-3-3-----1-1-1-1--1---3-3-3-3----------------------------------------------------------------|

G|-----------------------------------------------------------------------------------------------------|
D|------------3h5-3-3----------------------------------------------------------------------------------|
A|---------------------------------------------------------------------------------2-2-2-2-3-3-3-3-----|
E|-3-3--3-3-3---------1-1-1-1--3-3--3-3-3--5-5--5--8-7-8--3-3--3-3-3-0-1-1--3-3-3----------------------|

G|-----------------------------------------------------------------------------------------------------|
D|----------3-3-3-3-2-2-2-2-3-3-3-3-3/---5555555555555555-3333333333333333-5555555555555555------------|
A|-5-5-5-5---------------------------------------------------------------------------------------------|
E|-----------------------------------------------------------------------------------------------------|

G|-----------------------------------------------------------------------------------------------------|
D|-3333333333333333-5555555555555555-7777777777777777-9999999999999999-9\3-----------------------------|
A|-----------------------------------------------------------------------------------------------------|
E|-----------------------------------------------------------------------------------------------------|

Please, if you know how to play this, e-mail me at this address:


Bakit ko ginawa ito? Wala lang, gusto ko lang ubusin ang oras niyo. haha.





Comments


Popular Bamboo tabs & chords
Mr Clay Bass Tabs
So Far Away 2 Chords
Sunshine Song Chords
Hallelujah 3 Tabs
Hallelujah Intro Tabs
Last Days On A Cruise Ship 1 Tabs
Noypi 1 Tabs
Peace Man 2 Tabs
So Far Away 2 Tabs
Noypi Ukulele


Song lyrics



↑ Back to top | Tablatures and chords are parodies/interpretations of the original songs. You may use it for private study, scholarship, research or language learning purposes only
© 2014 AZChords.com Contact us | Privacy policy | DMCA | Add/correct tabs | Request tabs | Top 50 tabs