» » »

Sunshine Song Bass tabs (ver.2)

Artists:  A B C D E F G H I J K L M N O P Q R S T U V W X Y Z # 

Sunshine Song Bass tabs (ver.2)

Bamboo
Rating:
0/5 (0 votes)

Tabs too difficult? Try these video lessons and learn fast.
                                               SUNSHINE (Bassline)
                              As recorded by bamboo
                         (Released as a Single in 2005)

Words and Music by bamboo

Gtr I (E A D G) - 'Untitled'

 00:00
  Q=150(8=s8)
 4/4
  Gtr I
                |-3--|                 |-3-|
  E E E E E S S E E  E   E E E E E S S E E E
|----------------------|---------------------|
|----------------------|---------------8-7---|
|---------------7h8-10-|-------------8-----8-|
|-8---8---8---8--------|-6---6---6-----------|


  E E E E E S S E E   E E E S S E S S E S S
|-------------------|-------------------------|
|-------------------|-------------------------|
|-------------------|-----------5-----6-------|
|-5---5---5---5-5---|-6---6---6-----6-----x---|


                                         |-3-|
  E E E E E S  S  E S  S   E E E E E S S E E E
|------------------------|---------------------|
|----------------10------|-8---8---8-----------|
|-------------10------10-|-------------8-------|
|-8---8---8--------------|---------------6-8-6-|


  E E E E E E E E   Q  Q  Q  Q    Q  Q  Q  Q
|-----------------|-------------|---------------||
|-----------------|-------------|---------------||
|-----------------|-6--6--6--6--|-6--6--6--6----||
|-5---5---5---5---|-------------|---------------||


   00:15
                          1.,2.,3.
    $
    E E E S S E E E S S   E E E E E E E S S  4x
||----------------------|--------------------||
||o---------------------|-------------------o||
||o---------------------|-6---6---6---6---x-o||
||--4---4---x-6---6---x-|--------------------||


  4.
       To Coda
  Q.   Q.   Q    E E E S S E E E S S
|--------------|---------------------||
|--------------|---------------------||
|--------------|---------------------||
|-8----8----8--|-4---4---x-6---6---x-||


 00:29
                                                               |-3-|
  E E E E E E E S S   E E E. S E E E E   Q  E. S Q  Q    E S S E E E Q  Q
|-------------------|------------------|---------------|-------------------|
|-------------------|------------------|-7-------------|-------------8-----|
|-------------------|-----5--x-6---8---|----7-------7--|-------5-6-8----8--|
|-8---8---8---8---x-|-6----------------|-------x-5-----|-6---6-------------|


  E E E E E E E S S   E E E S S  E. S  E. S
|-------------------|-----------------------|
|-------------------|---------------8-------|
|-------------------|---------8S10----10--x-|
|-8---8---8---8---x-|-6---6-----------------|


  E E E S S E E E. S   E E E E E S S E S S
|--------------------|----------------------||
|-7---7--------------|---------------8------||
|---------7-----7----|-------------8--------||
|-----------5------x-|-6---6---6---------x--||


  E E E E Q  E S S   E E E E Q  Q
|------------------|----------------|
|------------------|-8---8---8------|
|------------------|----------------|
|-8---8---8--8---x-|------------6/--|


                    00:47
     D.S. al Coda    &
   Q   Q   Q   Q     Q  Q  Q  Q    H.      Q
|-----------------||-------------|-------------*|
|-----------------||-------------|-------------*|
|-----------------||-------------|-6-----------*|
|-11--11--11--11--||-4-----6-----|-------------*|


Duration Legend
---------------
W - whole; H - half; Q - quarter; E - 8th; 
S - 16th; T - 32nd; X - 64th; a - acciaccatura
+ - note tied to previous; . - note dotted; .. - note double dotted
Uncapitalized letters represent notes that are staccato (1/2 duration)
Irregular groupings are notated above the duration line
Duration letters will always appear directly above the 
note/fret number it represents the duration for.  
Duration letters with no fret number below them represent rests.  
Multi-bar rests are notated in the form Wxn, where n is the 
number of bars to rest for. Low melody durations appear below the staff

Tablature Legend
----------------
 h   - hammer-on
 p   - pull-off
 b   - bend
 pb  - pre-bend
 r   - bend release (if no number after the r, then release immediately)
 /\  - slide into or out of (from/to "nowhere")
 s   - legato slide
 S   - shift slide
  - natural harmonic
[n]  - artificial harmonic
n(n) - tapped harmonic
 ~   - vibrato
 tr  - trill
 T   - tap
 TP  - trem. picking
 PM  - palm muting
\n/  - tremolo bar dip; n = amount to dip
 \n  - tremolo bar down
 n/  - tremolo bar up
/n\  - tremolo bar inverted dip
 =   - hold bend; also acts as connecting device for hammers/pulls
 <>  - volume swell (louder/softer)
 x   - on rhythm slash represents muted slash
 o   - on rhythm slash represents single note slash

Misc Legend
-----------
 |  - bar
||  - double bar
||o - repeat start
o|| - repeat end
*|  - double bar (ending)
 :  - bar (freetime)
 $  - Segno
 &  - Coda
Tempo markers -  = BPM(8/16=s8/s16), where s8 = swing 8ths, s16 = swing 16ths


****************************************************************************
****************************************************************************
            
Tabs too difficult? Try these video lessons and learn fast.




comments powered by Disqus
↑ Back to top | Tablatures and chords are parodies/interpretations of the original songs. You may use it for private study, scholarship, research or language learning purposes only