» » »

So Far Away Tabs (ver.1)

Artists:  A B C D E F G H I J K L M N O P Q R S T U V W X Y Z # 

So Far Away Tabs (ver.1)

Bamboo
Rating:
0/5 (0 votes)

Tabs too difficult? Try these video lessons and learn fast.
                Bamboo:So Far Away (Original song by:Carole King)


ok..HiRs The sOLo pArt tska ung Outro...bhaLa n kau s chordS.La nq tyM.
::Make Luv NoT WaR::


Symbols
-------------------------
|   /   = slide up
|   \   = slide down
|   ~   = vibrate the held note
    h   = hammer
+--------------------------------


SOLO PART:

e-----------------------------------------------------------------------|
B------------------------------------------9/14\1--------10-9~--12/14~--|
G------------------------------------------9/14\1---9-11----------------|
D------7-6~--------7-6~-7-7/9~--12/14-11~--9/14\1-----------------------|
A--7-9---------7-9------------------------------------------------------|
E-----------------------------------------------------------------------|
 nOtE: 9/14\1 this part should be done gently to get the right sound..


e----------------------13---------13/15-13/15-13~------------------------|
B-------10-9~-12/14~------14-10~-----------------------------------------|
G--9-11------------------------------------------------------------------|
D------------------------------------------------------------------------|
A------------------------------------------------------------------------|
E------------------------------------------------------------------------|

OUTRO:

e------------------------------------------------------------------------|
B----------------------------10----9~--10/12--12h14-10----12/14-12~------|
G-------6~-------7/9~---9/11----11---------------------------------------|
D---7-6------7-6---------------------------------------------------------|
A-7--------7-------------------------------------------------------------|
E------------------------------------------------------------------------|

e--------------13-----------------13/15-13~------------------------------|
B-12/14-12--15----14-12-12/14\12-------------10h12-10--------10-9--------|
G-----------------------------------------------------9h11-9-------------|
D------------------------------------------------------------------------|
A------------------------------------------------------------------------|
E------------------------------------------------------------------------|

e-11/13-10~------------------13/15-13~-----------------------------------|
B-----------9h11-9--12h14-12---------------------------------------------|
G------------------------------------------------------------------------|
D------------------------------------------------------------------------|
A------------------------------------------------------------------------|
E------------------------------------------------------------------------|


wEll tHATS IT.. MabuhAY RakisTang PiNoY!
            
Tabs too difficult? Try these video lessons and learn fast.




comments powered by Disqus
↑ Back to top | Tablatures and chords are parodies/interpretations of the original songs. You may use it for private study, scholarship, research or language learning purposes only