>
 >
Fiestamazing

Fiestamazing Guitar Tabs

Bamboo - Fiestamazing chords, tabs, tablatures, lyrics

Guitar lessons | Add/correct | Request | Top 50 tabs Artists:  A B C D E F G H I J K L M N O P Q R S T U V W X Y Z 0-9

Fiestamazing Guitar Tabs – Bamboo

CD, Sheet music, Poster

Do you like Fiestamazing? Share with your friends now
Tabs
                              


Tabbeb by: Gadasher (GCF_14)
Tuning: EADGBE


Intro:                                               

    A        G
E|-----------------------|
B|-----------------------|
G|-----------------------|
D|--7--------5-----------|
A|--7--------5-----------|
E|--5--------3-----------|

Verse:

   A                   D/G    F#m             G   A
E|------------------------------------------------------------------------|
B|------------------------------------------------------------------------|
G|----------------------7-------------------------------------------------|
D|-7--------------------7------4--------------5---7-----------------------|
A|-7--------------------5------4--------------5---7-----------------------|
E|-5---------------------------2--------------3---5-----------------------|
  Libo-libong isla........ Sa bawat baryo ...... Dito kami sa bayan ko...

  D/G               F#m                           G
E|------------------------------------------------------------------------|
B|------------------------------------------------------------------------|
G|-7----------------------------------------------------------------------|
D|-7-----------------4----------------------------5-----------------------|
A|-5-----------------4----------------------------5-----------------------|
E|-------------------2----------------------------3-----------------------|
  tuloy ang ligaya. Kahit walang panggastos, sumasabog sa saya.

Chorus:

   A                  G                 A                            G
E|------------------------------------------------------------------------|
B|------------------------------------------------------------------------|
G|------------------------------------------------------------------------|
D|-7----------7777----5-----5555--------7---------7777---------------5----|
A|-7----------7777----5-----5555--------7---------7777---------------5----|
E|-5----------5555----3-----3333--------5---------5555---------------3----|
  Fiestamazing.........................Wala ng hahanapin pa basta't buddy

E|----------------------|
B|----------------------|
G|----------------------| 2x
D|------5555------------|
A|------5555------------|
E|------3333------------|
  ka'y kasama.....

   A              C    G                      A           C   G
E|-------------------------------------|----------------------------------|
B|-------------------------------------|----------------------------------|
G|-------------------------------------|----------------------------------|
D|-7-------------10----5-----( 3x )----|------7----------10---5-----------|
A|-7-------------10----5---------------|------7----------10---5-----------|
E|-5--------------8----3---------------|------5-----------8---3-----------|
  Owoho.........Owohoohooo....                Owoho Owoho........

Verse 2:
                                
   A                        D/G              F#m         G
E|------------------------------------------------------------------------|
B|------------------------------------------------------------------------|
G|---------------------------7--------------------------------------------|
D|-7-------------------------7----------------4----------5----------------|
A|-7-------------------------5----------------4----------5----------------|
E|-5------------------------------------------2----------3----------------|
  Kasama ko ang buddy ko sa amin dito. Isang tawag lang samasama na tayo.

    A                   D/G                    F#m                Em
E|------------------------------------------------------------------------|
B|------------------------------------------------------------------------|
G|-----------------------7------------------------------------------------|
D|--7--------------------7----------------------4-------------------------|
A|--7--------------------5----------------------4-----------------1-------|
E|--5-------------------------------------------2-----------------0-------|
  From Luzon to Mindanao iisa lang ang sigaw. Isang kulay, isang diwa,
   
   G
E|------------------|
B|------------------|
G|------------------| (REPEAT CHORUS)
D|-5----------------|
A|-5----------------|
E|-3----------------|
  iisang gawa......

Insrumental:

       A              D/G
E|---------------------------------------------|
B|---------------------------------------------|
G|-----------------77777777--------------------| (REPEAT CHORUS)
D|--77777777-------77777777-------( 4x )-------|
A|--77777777-------55555555--------------------|
E|--55555555-----------------------------------|


Chorus 2: (last Chorus)

    A            D/G            F#m                 G
E|------------------------------------------------------------------------|
B|------------------------------------------------------------------------|
G|---------------7777-----------------------------------------------------|
D|-7777----------7777----------4444----------------5555-------------------|
A|-7777----------5555----------4444----------------5555-------------------|
E|-5555------------------------2222----------------3333-------------------|
  Fiestamazing............... Wala ng hahanapin pa......................

    A            D/G          F#m          G       A
E|-------------------------------------------------------|
B|-------------------------------------------------------|
G|---------------7777------------------------------------|
D|-7777----------7777---------4444--------5555-----7-----|
A|-7777----------5555---------4444--------5555-----7-----|
E|-5555-----------------------2222--------3333-----5-----|
  Fiestamazing.............. Fiestamazing................


..........................Please Rate Nyo Na Lang To........................





Comments


Popular Bamboo tabs & chords
As The Music Plays The Band 2 Bass Tabs
F.U 1 Bass Tabs
Hallelujah 5 Bass Tabs
Kalayaan Bass Tabs
Gwapo Si Rashid Chords
Masaya 1 Chords
Much Has Been Said Chords
Kailan 2 Tabs
Light Years Ukulele
So Far Away Ukulele


Song lyrics



↑ Back to top | Tablatures and chords are parodies/interpretations of the original songs. You may use it for private study, scholarship, research or language learning purposes only
© 2014 AZChords.com Contact us | Privacy policy | DMCA | Add/correct tabs | Request tabs | Top 50 tabs