» » »

Bamboo, Blown Away Tabs (ver.1)

Artists:  A B C D E F G H I J K L M N O P Q R S T U V W X Y Z # 

Blown Away Tabs (ver.1)

Bamboo Tabs
 Rating:
4.2/5 (5 votes)
Blown Away lessons Tabs too difficult? Try these video lessons and learn fast
                Blown Away- Bamboo
By 09283150081
SHC Lucena

Verse- Am F Dm G 2x
       Am F Am F 
       Dm G G

GtrI
|-5-5-5-5-5-5-5-5-1-1-1-1-1-1-1-1-5-5-5-5-5-5-5-5-3-3-3-3-3-3-3-3--|
|-5-5-5-5-5-5-5-5-1-1-1-1-1-1-1-1-6-6-6-6-6-6-6-6-3-3-3-3-3-3-3-3--|
|-5-5-5-5-5-5-5-5-2-2-2-2-2-2-2-2-7-7-7-7-7-7-7-7-4-4-4-4-4-4-4-4--|
|-7-7-7-7-7-7-7-7-3-3-3-3-3-3-3-3-7-7-7-7-7-7-7-7-5-5-5-5-5-5-5-5--|2x
|-7-7-7-7-7-7-7-7-3-3-3-3-3-3-3-3-5-5-5-5-5-5-5-5-5-5-5-5-5-5-5-5--|
|-5-5-5-5-5-5-5-5-1-1-1-1-1-1-1-1-----------------3-3-3-3-3-3-3-3--|

|-5-5-5-5-5-5-5-5-1-1-1-1-1-1-1-1-|
|-5-5-5-5-5-5-5-5-1-1-1-1-1-1-1-1-|
|-5-5-5-5-5-5-5-5-2-2-2-2-2-2-2-2-|
|-7-7-7-7-7-7-7-7-3-3-3-3-3-3-3-3-|2x
|-7-7-7-7-7-7-7-7-3-3-3-3-3-3-3-3-|
|-5-5-5-5-5-5-5-5-1-1-1-1-1-1-1-1-|


|--5-5-5-5-5-5-5-5-3-3-3-3-3-3-3-3-3-3-3-3-3-3-3--|
|--6-6-6-6-6-6-6-6-3-3-3-3-3-3-3-3-3-3-3-3-3-3-3--|
|--7-7-7-7-7-7-7-7-4-4-4-4-4-4-4-4-4-4-4-4-4-4-4--|
|--7-7-7-7-7-7-7-7-5-5-5-5-5-5-5-5-5-5-5-5-5-5-5--|
|--5-5-5-5-5-5-5-5-5-5-5-5-5-5-5-5-5-5-5-5-5-5-5--|
|------------------3-3-3-3-3-3-3-3-3-3-3-3-3-3-3--|

Verse2-Am F Dm G 2x
       Am F Am F 
       Dm G G   
  
Chorus-C Dm G C 2x


|-0-0-0-0-0-0-0-0-0-1-1-1-1-1-1-1-1-1-3-3-3-3-3-3-3-3-3-0-0-0-0-0-0-0-0-0-|
|-1-1-1-1-1-1-1-1-1-3-3-3-3-3-3-3-3-3-3-3-3-3-3-3-3-3-3-1-1-1-1-1-1-1-1-1-|
|-0-0-0-0-0-0-0-0-0-2-2-2-2-2-2-2-2-2-0-0-0-0-0-0-0-0-0-0-0-0-0-0-0-0-0-0-|
|-2-2-2-2-2-2-2-2-2-0-0-0-0-0-0-0-0-0-0-0-0-0-0-0-0-0-0-2-2-2-2-2-2-2-2-2-|2x
|-3-3-3-3-3-3-3-3-3-------------------2-2-2-2-2-2-2-2-2-3-3-3-3-3-3-3-3-3-|
|-------------------------------------3-3-3-3-3-3-3-3-3-------------------|

Solo- Am F Am F

|--------------------------------------------|
|--------------------------------------------|
|-5~------------5h7-s9^-----5h7-5------------|
|----5--7-5-7~----------------------7-5-7~---|
|--------------------------------------------|
|--------------------------------------------|

|----------------------------------------------|
|----------------------------------------------|
|----------------------------------------------|
|----------------------------------------------|
|-/7--3~--------3-5-5--3-5-3---------3h5-------|
|--------5-3-5----------------5-3-5-----5p3-5--|

  |--full bend to lower----------------------->|
|----------------------------------------------------------------|
|----------------------------------------------------------------|
|-7^(9)~--7^-7^-7^-7^-7^-7^-7^-7^-7^-7^-7^-7^-7^-7^-5h7-5--------|
|----------------------------------------------------------7-5-7-|
|----------------------------------------------------------------|
|----------------------------------------------------------------|


|---------------------------------------------|
|-8^(10)--10p8--------------------------------|
|--------------9-7-5^(7)----------------------|
|------------------------7-5-7----------------|
|---------------------------------------------|
|---------------------------------------------|

bridge-

|-5-5-5-5-5-5-5-5-1-1-1-1-1-1-1-1-|
|-5-5-5-5-5-5-5-5-1-1-1-1-1-1-1-1-|
|-5-5-5-5-5-5-5-5-2-2-2-2-2-2-2-2-|
|-7-7-7-7-7-7-7-7-3-3-3-3-3-3-3-3-|2x
|-7-7-7-7-7-7-7-7-3-3-3-3-3-3-3-3-|
|-5-5-5-5-5-5-5-5-1-1-1-1-1-1-1-1-|


|-5-5-5-5-5-5-5-5-3-3-3-3-3-3-3-3-|
|-6-6-6-6-6-6-6-6-3-3-3-3-3-3-3-3-|
|-7-7-7-7-7-7-7-7-4-4-4-4-4-4-4-4-|
|-7-7-7-7-7-7-7-7-5-5-5-5-5-5-5-5-|3x
|-5-5-5-5-5-5-5-5-5-5-5-5-5-5-5-5-|
|-----------------3-3-3-3-3-3-3-3-|

Do verse-

|-5-5-5-5-5-5-5-5-1-1-1-1-1-1-1-1-|
|-5-5-5-5-5-5-5-5-1-1-1-1-1-1-1-1-|
|-5-5-5-5-5-5-5-5-2-2-2-2-2-2-2-2-|
|-7-7-7-7-7-7-7-7-3-3-3-3-3-3-3-3-|continued--end with Am
|-7-7-7-7-7-7-7-7-3-3-3-3-3-3-3-3-|
|-5-5-5-5-5-5-5-5-1-1-1-1-1-1-1-1-|


Lyrics-
blown away
it's easier to be your clone
you've done it again
nobody laughing laughing but you

see your changing your spots again
i close my eyes to see
what you've become

a broken man
the fits the part
it's a big surprise
you shouldn't tell
shot in head you dead
did nothing wrong this was between you and me
so what's it gonna be

you yourself you know that it can't be done
you just stand there just look pretty underneath a bleeding sun
clock starts ticking now
how long till the sun comes down

light
let me go
for ne save me
let me go
see she's calling
light let me go

is this uncertaintly
has this been all for show
is the color really me
slip slide go under trapped in the rabbit hole

shes's gone

a bum bit off you tounge
hooray someone else to blame
i try i've tried but i can't remember
this world this life this perfect picture
when did it start to become this ride
see your changing your spots again
i close my eyes to see
what you've become
            
Submit corrections

comments powered by Disqus
↑ Back to top | Bamboo Tabs for Blown Away. Lyrics for acoustic guitar and electric guitar. Tablatures and chords are parodies/interpretations of the original songs. You may use it for private study, scholarship, research or language learning purposes only