» » »

Bag Of Toys, Surf Song Tabs (ver.2)

Artists:  A B C D E F G H I J K L M N O P Q R S T U V W X Y Z # 

Surf Song Tabs (ver.2)

Bag Of Toys Tabs
 Rating:
4.3/5 (6 votes)
Surf Song lessons Tabs too difficult? Try these video lessons and learn fast
                ----------------------------------------------------------------------------
----------------------------------------------------------------------------
Hey, this song is really easy, only three chords, but the riffs are fun so if you got
people, ya. And sorry if the lyrics are wrong, hes hard to understand. If you have any

 The chords in the intro go D-A-G-A twice, barre chords. this is the riff:
e|--------------------------------------------------------------------------|
B|--------------------------------------------------------------------------|
G|----7--------7------------------------------------------------------------|
D|-7/9------7/9--9-7--------7-----------------------------------------------|
A|-----------------------7/9--9-7-5-5~-----5-7-7b-5---5-5~------------------|
E|--------------------------------------5/7---------7-----------------------|

e|-14p10----10-12-14-12-10------14p10--10-12-10-----------------------------|
B|-------12----------------12--------12--------10/12-10---------------------|
G|--------------------------------------------------------11----------------|
D|--------------------------------------------------------------------------|
A|--------------------------------------------------------------------------|
E|--------------------------------------------------------------------------|

e|-14p10--10-12-14-12-10----------------------------------------------------|
B|------12---------------12-10/12-10----------------------------------------|
G|--------------------------------- -11-9-7\0-------------------------------|
D|--------------------------------------------------------------------------|
A|--------------------------------------------------------------------------|
E|--------------------------------------------------------------------------|

Verse 1:
D
Cruisin to the beach in my peace of sh*t
A
Got my surf board jammed in and it barely fits
G                                                                    A
Suns pourin down and it floods the dash, hoola girl sways as  find my stash
D
Thumpin hands tap to the beat of the streets
A
the backs sweatin hard stickin to the seat
G                                                                    A
Got the Sublime pumpin on the stereo, but my heads still bumpin from the night before.

Mini Chorus:

        G                                        A                               D       
                   A
But thats okay, thats okay, another day on its way..

Verse 2
D
Got the windows rolled down and the pedal to the floor
A
But the fog bank looms just a mile offa shore
G                                                                     A
Its only 10am and the beach is packed, the girlies in thongs got my mind all sacked
D
Well the new swells here and their startin to show,
A
Got the offshore winds and their ready to blow
G                                                                A
Pull out the board, wax up the stick, the duct taped thing seems to do the trick

Chorus:
        G                                       A                               D        
             A
But thats okay, thats okay, another day on its way..
                           G                                    A                D       
              A
Its a beautiful day, Ya its a beautiful day ya
                           G                                     A               D       
             A
Its a beautiful day, Ya its a beautiful day ya
(During the chorus the riff played over it is just the second part of the intro.)

Bridge:
G
I paddle out, dish it up and pull it out again
A
Rip it up and pull it up to feel like a friend
G                                                                                    A
Fight another day, complain another day, cause everything melts away
G
Till you pour it out and pull it up, well give it what youve got
A
Jack it up and fill it up and take it to the next notch
G                                                            A
Take it all away its a beautiful day, take it all away ya


-Mini chorus then solo-


Final verse:
D
Sprintin across the sand the burn on my feet
A
Hit the surf  runnin and dont miss a beat
G                                                                    A
Take my place bobbin out in the swell, turn spin and paddle like hell
D
Feel the wave grabbin and jump to my feet
A
The bottom carve turn like ive never seen
G                                                                 A
Six quick snaps and a floater inside, kick out the back a nice f**kin ride

-Chorus-


| /  slide up
| \  slide down
| h  hammer-on
| p  pull-off
| ~  vibrato
| b  bend
| x  Mute note
            
Submit corrections

comments powered by Disqus
↑ Back to top | Bag Of Toys Tabs for Surf Song. Lyrics for acoustic guitar and electric guitar. Tablatures and chords are parodies/interpretations of the original songs. You may use it for private study, scholarship, research or language learning purposes only