» » »

Baez Joan, Diamonds And Rust Tabs (ver.1)

Artists:  A B C D E F G H I J K L M N O P Q R S T U V W X Y Z # 

Diamonds And Rust Tabs (ver.1)

Baez Joan Tabs
 Rating:
4.2/5 (5 votes)
Diamonds And Rust lessons Tabs too difficult? Try these video lessons and learn fast
1
                Diamonds and Rust - Joan Baez

Tabulature by Nathan Sitkoff

Intro:

  Em
E --------0-----------0-----------|--------0-----------0-----------|
B --------0-----------0-----------|--------0-----------0-----------|
G ----0-----------0---------------|----0-----------0-----------0---|
D ------------------------2-------|4-----------2-------------------|
A ------------2-------------------|------------------------2-------|
E 0-------------------------------|--------------------------------|
  ^ . ^ . ^ . ^ . ^ . ^ . ^ . ^ .  ^ . ^ . ^ . ^ . ^ . ^ . ^ . ^ .   

E --------0-----------0-----------|--------0-----------0-----------|
B --------0-----------0-----------|--------0-----------0-----------|
G ----0-----------0---------------|----0-----------0-----------0---|
D ------------------------2-------|4-----------2-----------4-------|
A ------------2-------------------|--------------------------------|
E 0-------------------------------|--------------------------------|
  ^ . ^ . ^ . ^ . ^ . ^ . ^ . ^ .  ^ . ^ . ^ . ^ . ^ . ^ . ^ . ^ .   

E --------0-----------0-----------|--------0-----------0-----------|
B ----0-----------0-----------0---|----0-----------0-----------0---|
G --------------------------------|2-----------0-----------2-------|
D 5-----------4-----------5-------|--------------------------------|
A --------------------------------|--------------------------------|
E --------------------------------|--------------------------------|
  ^ . ^ . ^ . ^ . ^ . ^ . ^ . ^ .  ^ . ^ . ^ . ^ . ^ . ^ . ^ . ^ .   

E --------3-----------3-----------|--------5-----------5-----------|
B ----0-----------0---------------|----0-----------0---------------|
G 4-----------4-----------4-------|5-----------5-----------5--/4---|
D --------------------------------|--------------------------------|
A --------------------------------|--------------------------------|
E --------------------------------|--------------------------------|
  ^ . ^ . ^ . ^ . ^ . ^ . ^ . ^ .  ^ . ^ . ^ . ^ . ^ . ^ . ^ . ^ .  

E --------3-----------3-----------|--------2-----------2-----------|
B ----0-----------0---------------|----0-----------0---------------|
G 4-----------4-----------4-------|2-----------2---------------2---|
D --------------------------------|------------------------1-------|
A --------------------------------|--------------------------------|
E --------------------------------|--------------------------------|
  ^ . ^ . ^ . ^ . ^ . ^ . ^ . ^ .  ^ . ^ . ^ . ^ . ^ . ^ . ^ . ^ .  
B7
E --------------------2-----------|
B ----------------0-----------0---|
G ------------2-----------2-------|	back to original form
D --------1-----------------------|
A 2---2---------------------------|
E --------------------------------|
  ^ . ^ . ^ . ^ . ^ . ^ . ^ . ^ . 

Verse:
  
  Em
E --------0-----------0-----------|--------0-----------0-----------|
B --------0-----------0-----------|--------0-----------0-----------|
G ----0-----------0---------------|----0-----------0-----------0---|
D ------------------------2-------|4-----------2-----------0-------|
A ------------2-------------------|--------------------------------|
E 0-------------------------------|--------------------------------|
  ^ . ^ . ^ . ^ . ^ . ^ . ^ . ^ .  ^ . ^ . ^ . ^ . ^ . ^ . ^ . ^ .   
  C
E --------0-----------0-----------|--------0-----------0-----------|
B --------1-----------1-----------|--------1-----------1-----------|
G ----0---------------------------|----0-----------0-----------0---|
D ------------0--h2---------------|--------------------------------|
A 3-------------------------------|3-----------2-----------0-------|
E ------------------------3-------|--------------------------------|
  ^ . ^ . ^ . ^ . ^ . ^ . ^ . ^ .  ^ . ^ . ^ . ^ . ^ . ^ . ^ . ^ . 
  G
E --------3-----------3-----------|--------3-----------3-----------|
B --------0-----------0---0h1p0---|--------0-----------0-----------|
G ----0-----------0---------------|----0-----------0---------------|
D ------------0-----------0h2p0---|------------0-------------------|
A --------------------------------|------------------------2---3---|
E 3-------------------------------|3-------------------------------|
  ^ . ^ . ^ . ^ . ^ . ^ . ^ . ^ .  ^ . ^ . ^ . ^ . ^ . ^ . ^ . ^ .  
  D
E --------2-----------2-----------|--------2-----------2-----------|
B --------3-----------3-----------|--------3-----------3-----------|
G ----2-----------2---------------|----2-----------2-----------0---|
D 0-----------------------0-------|0-----------------------0-------|
A ------------0-------------------|------------0-------------------|
E --------------------------------|--------------------------------|
  ^ . ^ . ^ . ^ . ^ . ^ . ^ . ^ .  ^ . ^ . ^ . ^ . ^ . ^ . ^ . ^ .  
  Em
E --------0-----------0-----------|--------0-----------0-----------|
B --------0-----------0-----------|--------0-----------0-----------|
G ----0-----------0---------------|----0-----------0-----------0---|
D ------------------------2-------|4-----------2-----------0-------|
A ------------2-------------------|--------------------------------|
E 0-------------------------------|--------------------------------|
  ^ . ^ . ^ . ^ . ^ . ^ . ^ . ^ .  ^ . ^ . ^ . ^ . ^ . ^ . ^ . ^ .
            
Submit corrections

comments powered by Disqus
↑ Back to top | Baez Joan Tabs for Diamonds And Rust. Lyrics for acoustic guitar and electric guitar. 1 Tablatures and chords are parodies/interpretations of the original songs. You may use it for private study, scholarship, research or language learning purposes only