» » »

Bad Religion, Whisper In Time Tabs (ver.1)

Artists:  A B C D E F G H I J K L M N O P Q R S T U V W X Y Z # 

Whisper In Time Tabs (ver.1)

Bad Religion Tabs
Rating:
0/5 (0 votes)
Hard to play? Try these video lessons and learn fast.
                Song-Whisper in Time
Artist-Bad Religion
CD-New America
Track-7

Openning
Pay attention to the strings

G-------7--------5
D-------7--------5
A-5-5--5--3-3-3

Solo thingy
E-------------------------3-2-2p0---------------------
B-----------------5-3-3-------------5h3-3h1-1-3-5\
G-4-4-4h5p4-2----------------------------------------


Verses 1 and 2
E5-x799xx
D5-x577xx
C5-x355xx

Ex-All Palm Muted except last D5 and E5
E5                              D5                      C5                               D5  E5
All those stories that my dad told me, they are just a whisper in time


Chorus
C-x32010
G-320003
D-xx0232
Em-022000

but it sounds just fine without the pattern.
                       C                       G    D                                        G
A whisper in time, whisper in time, things just chase from my mind
                       C                        Em  D                   C            Em
A whisper in time, whisper in time, molments that flicker and die


Solo-
E-0-0-0-2-3-2-0-------------2-3-3-2--7(p)5(p)3(p)0---12(-)--12-10-9-12-12-12-10
B-------------------3-3------------------------------------------------------------------------
G-------------------------0--2----------------------------------------------------------------
D----------------------------------------------------------------------------------------------
A---------------------------------------------------------------------------------------------
E----------------------------------------------------------------------------------------------

E-12h13p12p10-12-15-18-17-15-12-10-12\
B---------------------------------------------------
G---------------------------------------------------
D---------------------------------------------------
A---------------------------------------------------
E---------------------------------------------------

Verse 3
Guitar 1 play the same in verse 1 and 2

Outro-Just end like the chorus
D to C to Em 
palm muted

Just listen to the song and you'll get most of it.  Just remember the solo is really fast at the end and 
really hard to play.
Oh, one more thing, please rate the song, so it looks like people look at it
            

comments powered by Disqus
↑ Back to top | Bad Religion Tabs for Whisper In Time. Lyrics for acoustic guitar and electric guitar. Tablatures and chords are parodies/interpretations of the original songs. You may use it for private study, scholarship, research or language learning purposes only