>
 >
Watch It Die

Watch It Die Guitar Tabs

Bad Religion - Watch It Die chords, tabs, tablatures, lyrics

Guitar lessons | Add/correct | Request | Top 50 tabs Artists:  A B C D E F G H I J K L M N O P Q R S T U V W X Y Z 0-9

Watch It Die Guitar Tabs – Bad Religion

CD, Sheet music, Poster

Do you like Watch It Die? Share with your friends now
Bass TabsChordsTabs

WATCH IT DIE
As recorded by Bad Religion
(From the 1993 Album RECIPE FOR HATE)

        

Words and Music by Bad Religion
Arranged by Bad Religion

Gtr I (E A D G B E) - 'Untitled'
Gtr II (E A D G B E) - 'Untitled'
Gtr III (E A D G B E) - 'Untitled'

 Intro
  Q=120
  N.C.
 4/4          2/4    4/4                                3/4
  Gtr I
  Wx6          H      E E H    +e  E   S S E H    +q     E E E S S E E
|------------|------|----------------|-----------------|----------------||
|------------|------|----------------|-----------------|----------------||
|------------|------|----------------|-----------------|----------------||
|------------|------|-2-2-2----(2)---|-----------------|----------------||
|------------|------|--------------2-|-3p2p0-0----(0)--|-5-5-5-0h2-3-2--||
|------------|------|----------------|-----------------|----------------||


  A5        C5    G5      A5        C5    G5
 4/4
  Gtr II
  E E E E   E E   E E     E E E E   E E   E E
|-----------------3-3---|-----------------3-3---|
|---0---0-----3---3-3---|---0---0-----3---3-3---|
|-2-2-2-2---5-----4-4---|-2-2-2-2---5-----4-4---|
|-2-2-2-2---5-----5-5---|-2-2-2-2---5-----5-5---|
|-0-0-0-0---3-----5-----|-0-0-0-0---3-----5-----|
|-----------------3-----|-----------------3-----|
|
| Gtr III
| E E E S S E S S E S S   E E E S S E S S E S S
|-----------------------|-----------------------|
|-----------------------|-----------------------|
|-----------5-5-5-------|-----------5-5-5-------|
|-7-7-7-7-7-5-5-5-5-5-5-|-7-7-7-7-7-5-5-5-5-5-5-|
|-7-7-7-7-7-3-3-3-5-5-5-|-7-7-7-7-7-3-3-3-5-5-5-|
|-5-5-5-5-5-------3-3-3-|-5-5-5-5-5-------3-3-3-|


  A5        C5    G5      A5        C5    G5
  E E E E   E E   E E     E E E E   E E   E E
|-0---------------3-3---|-----------------3-3-----||
|-0-0---0-----3---3-3---|---0---0-----3---3-3-----||
|-2-2-2-2---5-----4-4---|-2-2-2-2---5-----4-4-----||
|-2-2-2-2---5-----5-5---|-2-2-2-2---5-----5-5-----||
|-0-0-0-0---3-----5-----|-0-0-0-0---3-----5-------||
|-----------------3-----|-----------------3-------||
|
| E E E S S E S S E S S   E E E S S E S S E S S
|-----------------------|-------------------------||
|-----------------------|-------------------------||
|-----------5-5-5-------|-----------5-5-5---------||
|-7-7-7-7-7-5-5-5-5-5-5-|-7-7-7-7-7-5-5-5-5-5-5---||
|-7-7-7-7-7-3-3-3-5-5-5-|-7-7-7-7-7-3-3-3-5-5-5---||
|-5-5-5-5-5-------3-3-3-|-5-5-5-5-5-------3-3-3---||


   Verse
    A5        C5    G5      A5        C5    G5
    E E E E   E E   E E     E E E E   E E   E E
||------------------------|-----------------------|
||o---0---0-----3---------|---0---0-----3---------|
||--2-2-2-2---5-----4-4---|-2-2-2-2---5-----4-4---|
||--2-2-2-2---5-----5-5---|-2-2-2-2---5-----5-5---|
||o-0-0-0-0---3-----5-5---|-0-0-0-0---3-----5-5---|
||------------------3-----|-----------------3-----|
|
|   E E E S S E S S E S S   E E E S S E S S E S S
||------------------------|-----------------------|
||o-----------------------|-----------------------|
||------------5-5-5-------|-----------5-5-5-------|
||--7-7-7-7-7-5-5-5-5-5-5-|-7-7-7-7-7-5-5-5-5-5-5-|
||o-7-7-7-7-7-3-3-3-5-5-5-|-7-7-7-7-7-3-3-3-5-5-5-|
||--5-5-5-5-5-------3-3-3-|-5-5-5-5-5-------3-3-3-|


  A5        C5    G5      A5        C5    G5
  E E E E   E E   E E     E E E E   E E   E E
|-0---------------------|-------------------------|
|-0-0---0-----3---------|---0---0-----3-----------|
|-2-2-2-2---5-----4-4---|-2-2-2-2---5-----4-4-----|
|-2-2-2-2---5-----5-5---|-2-2-2-2---5-----5-5-----|
|-0-0-0-0---3-----5-5---|-0-0-0-0---3-----5-5-----|
|-----------------3-----|-----------------3-------|
|
| E E E S S E S S E S S   E E E S S E S S E S S
|-----------------------|-------------------------|
|-----------------------|-------------------------|
|-----------5-5-5-------|-----------5-5-5---------|
|-7-7-7-7-7-5-5-5-5-5-5-|-7-7-7-7-7-5-5-5-5-5-5---|
|-7-7-7-7-7-3-3-3-5-5-5-|-7-7-7-7-7-3-3-3-5-5-5---|
|-5-5-5-5-5-------3-3-3-|-5-5-5-5-5-------3-3-3---|


  D5        C5    G5      A5        C5    G5      D5
                                                 3/4
  E E E E   E E   E E     E E E E   E E   E E     E E E  S S E E
|-----------------------|-0---------------------|-2-2-2----2-----||
|-3-3-3-------3---------|-0-0---0-----3---------|-3-3-3----3-----||
|-2-2-2-2---5-----4-4---|-2-2-2-2---5-----4-4---|-2-2-2--2-2-0-0-||
|-0-0-0-0---5-----5-5---|-2-2-2-2---5-----5-5---|-0-0-0--0---0-0-||
|-0-0-0-0---3-----5-5---|-0-0-0-0---3-----5-5---|-0-0-0------3-2-||
|-----------------3-----|-----------------3-----|----------------||
|
| E E E S S E S S E S S   E E E S S E S S E S S   E E E.   S E E
|-----------------------|-----------------------|----------------||
|-----------------------|-----------------------|----------------||
|-7-7-7-7-7-5-5-5-------|-----------5-5-5-------|-7-7-7----------||
|-7-7-7-7-7-5-5-5-5-5-5-|-7-7-7-7-7-5-5-5-5-5-5-|-7-7-7----------||
|-5-5-5-5-5-3-3-3-5-5-5-|-7-7-7-7-7-3-3-3-5-5-5-|-5-5-5----------||
|-5-5-5-5-5-------3-3-3-|-5-5-5-5-5-------3-3-3-|-5-5-5----7-8-7-||


 Pre-Verse
  A5        C5    G5      A5        C5    G5
 4/4
  E E E E   E E   E E     E E E E   E E   E E
|-----------------------|------------------------||
|---0---0-----3---------|---0---0-----3---------o||
|-2-2-2-2---5-----4-4---|-2-2-2-2---5-----4-4----||
|-2-2-2-2---5-----5-5---|-2-2-2-2---5-----5-5----||
|-0-0-0-0---3-----5-5---|-0-0-0-0---3-----5-5---o||
|-----------------3-----|-----------------3------||
|
| E E E S S E S S E S S   E E E S S E S S E S S
|-----------------------|------------------------||
|-----------------------|-----------------------o||
|-----------5-5-5-------|-----------5-5-5--------||
|-7-7-7-7-7-5-5-5-5-5-5-|-7-7-7-7-7-5-5-5-5-5-5--||
|-7-7-7-7-7-3-3-3-5-5-5-|-7-7-7-7-7-3-3-3-5-5-5-o||
|-5-5-5-5-5-------3-3-3-|-5-5-5-5-5-------3-3-3--||


  D5               A5        C5    G5      A5        C5    G5
 3/4              4/4
  E E E  S S E E   E E E E   E E   E E     E E E E   E E   E E
|-2-2-2----2-----|-0-0-0-----------------|-0-0-0-----------------||
|-3-3-3----3-----|-0-0-0-0-----3---------|-0-0-0-0-----3---------||
|-2-2-2--2-2-0-0-|-2-2-2-2---5-----4-4---|-2-2-2-2---5-----4-4---||
|-0-0-0--0---0-0-|-2-2-2-2---5-----5-5---|-2-2-2-2---5-----5-5---||
|-0-0-0------3-2-|-0-0-0-0---3-----5-5---|-0-0-0-0---3-----5-5---||
|----------------|-----------------3-----|-----------------3-----||
|
| E E E.   S E E   E E E S S E S S E S S   E E E S S E S S E S S
|----------------|-----------------------|-----------------------||
|----------------|-----------------------|-----------------------||
|-7-7-7----------|-----------5-5-5-------|-----------5-5-5-------||
|-7-7-7----------|-7-7-7-7-7-5-5-5-5-5-5-|-7-7-7-7-7-5-5-5-5-5-5-||
|-5-5-5----------|-7-7-7-7-7-3-3-3-5-5-5-|-7-7-7-7-7-3-3-3-5-5-5-||
|-5-5-5----7-8-7-|-5-5-5-5-5-------3-3-3-|-5-5-5-5-5-------3-3-3-||


 Verse
  A5        C5    G5      A5        C5    G5
  E E E E   E E   E E     E E E E   E E   E E
|-----------------------|-----------------------|
|---0---0-----3---------|---0---0-----3---------|
|-2-2-2-2---5-----4-4---|-2-2-2-2---5-----4-4---|
|-2-2-2-2---5-----5-5---|-2-2-2-2---5-----5-5---|
|-0-0-0-0---3-----5-5---|-0-0-0-0---3-----5-5---|
|-----------------3-----|-----------------3-----|
|
| E E E S S E S S E S S   E E E S S E S S E S S
|-----------------------|-----------------------|
|-----------------------|-----------------------|
|-----------5-5-5-------|-----------5-5-5-------|
|-7-7-7-7-7-5-5-5-5-5-5-|-7-7-7-7-7-5-5-5-5-5-5-|
|-7-7-7-7-7-3-3-3-5-5-5-|-7-7-7-7-7-3-3-3-5-5-5-|
|-5-5-5-5-5-------3-3-3-|-5-5-5-5-5-------3-3-3-|


  A5        C5    G5      A5        C5    G5
  E E E E   E E   E E     E E E E   E E   E E
|-0---------------------|-----------------------|
|-0-0---0-----3---------|---0---0-----3---------|
|-2-2-2-2---5-----4-4---|-2-2-2-2---5-----4-4---|
|-2-2-2-2---5-----5-5---|-2-2-2-2---5-----5-5---|
|-0-0-0-0---3-----5-5---|-0-0-0-0---3-----5-5---|
|-----------------3-----|-----------------3-----|
|
| E E E S S E S S E S S   E E E S S E S S E S S
|-----------------------|-----------------------|
|-----------------------|-----------------------|
|-----------5-5-5-------|-----------5-5-5-------|
|-7-7-7-7-7-5-5-5-5-5-5-|-7-7-7-7-7-5-5-5-5-5-5-|
|-7-7-7-7-7-3-3-3-5-5-5-|-7-7-7-7-7-3-3-3-5-5-5-|
|-5-5-5-5-5-------3-3-3-|-5-5-5-5-5-------3-3-3-|


  D5        C5    G5      A5        C5    G5
  E E E E   E E   E E     E E E E   E E   E E
|-----------------------|-----------------------|
|-3-3-3-------3---------|-0-0---0-----3---------|
|-2-2-2-2---5-----4-4---|-2-2-2-2---5-----4-4---|
|-0-0-0-0---5-----5-5---|-2-2-2-2---5-----5-5---|
|-0-0-0-0---3-----5-5---|-0-0-0-0---3-----5-5---|
|-----------------3-----|-----------------3-----|
|
| E E E S S E S S E S S   E E E S S E S S E S S
|-----------------------|-----------------------|
|-----------------------|-----------------------|
|-7-7-7-7-7-5-5-5-------|-----------5-5-5-------|
|-7-7-7-7-7-5-5-5-5-5-5-|-7-7-7-7-7-5-5-5-5-5-5-|
|-5-5-5-5-5-3-3-3-5-5-5-|-7-7-7-7-7-3-3-3-5-5-5-|
|-5-5-5-5-5-------3-3-3-|-5-5-5-5-5-------3-3-3-|


  D5               A5        C5    G5      A5        C5    G5
 3/4              4/4
  E E E  S S E E   E E E E   E E   E E     E E E E   E E   E E
|-2-2-2----2-----|-0---------------------|-0---------------------||
|-3-3-3----3-----|-0-0---0-----3---------|-0-0---0-----3---------||
|-2-2-2--2-2-0-0-|-2-2-2-2---5-----4-4---|-2-2-2-2---5-----4-4---||
|-0-0-0--0---0-0-|-2-2-2-2---5-----5-5---|-2-2-2-2---5-----5-5---||
|-0-0-0------3-2-|-0-0-0-0---3-----5-5---|-0-0-0-0---3-----5-5---||
|----------------|-----------------3-----|-----------------3-----||
|
| E E E.   S E E   E E E S S E S S E S S   E E E S S E S S E S S
|----------------|-----------------------|-----------------------||
|----------------|-----------------------|-----------------------||
|-7-7-7----------|-----------5-5-5-------|-----------5-5-5-------||
|-7-7-7----------|-7-7-7-7-7-5-5-5-5-5-5-|-7-7-7-7-7-5-5-5-5-5-5-||
|-5-5-5----------|-7-7-7-7-7-3-3-3-5-5-5-|-7-7-7-7-7-3-3-3-5-5-5-||
|-5-5-5----7-8-7-|-5-5-5-5-5-------3-3-3-|-5-5-5-5-5-------3-3-3-||


 Interlude
  A5                G5                E5                F5          C5    B5A5
  E E E E E E E E   E E E E E E E E   E E E E E E E E    E  E  E  E  E  E E E
|-0-0-0-0-0-0-0-0-|-0-0-0-0-0-0-0-0-|-0-0-0-0-0-0-0-0-|--0--0--0--0--0--0-0-0-|
|-0-0-0-0-0-0-0-0-|-0-0-0-0-0-0-0-0-|-0-0-0-0-0-0-0-0-|--0--0--0--0--0--0-0-0-|
|-2---------------|-----------------|-----------------|-----------------------|
|-2---------------|-----------------|-----------------|-----------------------|
|-0---------------|-----------------|-----------------|-----------------------|
|-----------------|-----------------|-----------------|-----------------------|
|
| E E E E E E E E   E E E E E E E E   E E E E E E E E    E  E  Q     E  E E E
|-----------------|-----------------|-----------------|-----------------------|
|-----------------|-----------------|-----------------|-----------------------|
|-----------------|-----------------|-----------------|-----------------------|
|-----------------|-----------------|-9-9-9-9-9-9-9-9-|-10-10-10\-------------|
|-7-7-7-7-7-7-7-7-|-5-5-5-5-5-5-5-5-|-7-7-7-7-7-7-7-7-|--8--8--8\---10-10-9-7-|
|-5-5-5-5-5-5-5-5-|-3-3-3-3-3-3-3-3-|-----------------|--------------8--8-7-5-|


  A5                G5                E5             F5          G5
  E E E E E E E E   E E E E E E E E   E E q  q  q     E  E  E  E  E  E  E  E
|-0-0-0-0-0-0-0-0-|-0-0-0-0-0-0-0-0-|--------0--0--|-------------------------||
|-0-0-0-0-0-0-0-0-|-0-0-0-0-0-0-0-0-|--------0--0--|-------------------------||
|-2---------------|-----------------|-1-1-1--------|-------------------------||
|-2---------------|-----------------|-2-2-2--------|--3--3--3--3--5--5--5--5-||
|-0---------------|-----------------|-2-2-2--------|--3--3--3--3--5--5--5--5-||
|-----------------|-----------------|-0-0-0--------|--1--1--1--1--3--3--3--3-||
|
| E E E E E E E E   E E E E E E E E   E E q  H        E  E  E  E  E  E  E  E
|-----------------|-----------------|--------------|-------------------------||
|-----------------|-----------------|--------------|-------------------------||
|-----------------|-----------------|-9-9-9--------|-------------------------||
|-----------------|-----------------|-9-9-9--------|-10-10-10-10-12-12-12-12-||
|-7-7-7-7-7-7-7-7-|-5-5-5-5-5-5-5-5-|-7-7-7--------|--8--8--8--8-10-10-10-10-||
|-5-5-5-5-5-5-5-5-|-3-3-3-3-3-3-3-3-|--------------|-------------------------||


 Guitar Solo
  A5             C5        G5       A5             C5        G5
  Gtr I
   S E.   Q       S E.     Q         S E.   Q       S E.     Q
|---------------------------------|---------------------------------|
|-/8-8----8\-----/8-8------8\-----|-/8-8----8\-----/8-8------8\-----|
|---------------------------------|---------------------------------|
|---------------------------------|---------------------------------|
|---------------------------------|---------------------------------|
|---------------------------------|---------------------------------|
|
| Gtr II
|  E    E E  E    E    E   E  E      E    E E  E    E    E   E  E
|---------------------------------|---------------------------------|
|-------0----0---------3----------|-------0----0---------3----------|
|--2----2-2--2----5--------4--4---|--2----2-2--2----5--------4--4---|
|--2----2-2--2----5--------5--5---|--2----2-2--2----5--------5--5---|
|--0----0-0--0----3--------5--5---|--0----0-0--0----3--------5--5---|
|--------------------------3------|--------------------------3------|
|
| Gtr III
|  E    E E  S S  E    S S E  S S    E    E E  S S  E    S S E  S S
|---------------------------------|---------------------------------|
|---------------------------------|---------------------------------|
|-----------------5----5-5--------|-----------------5----5-5--------|
|--7----7-7--7-7--5----5-5-5--5-5-|--7----7-7--7-7--5----5-5-5--5-5-|
|--7----7-7--7-7--3----3-3-5--5-5-|--7----7-7--7-7--3----3-3-5--5-5-|
|--5----5-5--5-5-----------3--3-3-|--5----5-5--5-5-----------3--3-3-|


  A5           C5       G5         A5                     C5             G5
                                      |-3--|
   H            Q        Q         E  S S  S S E   +S     +E  +S  +S     +Q
|-(0)----------(0)------(0)------|---10p8----------------------------------------|
|-10-----------10-------10-------|-8------10-x-8---(8)b10-(8)-(8)-(8)b10-(8)-----|
|--7b9----------7b9------7b9-----|-----------------------------------------------|
|--------------------------------|-----------------------------------------------|
|--------------------------------|-----------------------------------------------|
|--------------------------------|-----------------------------------------------|
|
|  E   E E E    E   E    E   E     E  E      E   E         E   E          E  E
|--0-----------------------------|-----------------------------------------------|
|--0---0---0--------3------------|----0----------0-------------3-----------------|
|--2---2-2-2----5--------4---4---|-2--2------2---2---------5--------------4--4---|
|--2---2-2-2----5--------5---5---|-2--2------2---2---------5--------------5--5---|
|--0---0-0-0----3--------5---5---|-0--0------0---0---------3--------------5--5---|
|------------------------3-------|----------------------------------------3------|
|
|  E   E E S S  E   S S  E   S S   E  E      E   S  S      E   S   S      E  S S
|--------------------------------|-----------------------------------------------|
|--------------------------------|-----------------------------------------------|
|---------------5---5-5----------|-------------------------5---5---5-------------|
|--7---7-7-7-7--5---5-5--5---5-5-|-7--7------7---7--7------5---5---5------5--5-5-|
|--7---7-7-7-7--3---3-3--5---5-5-|-7--7------7---7--7------3---3---3------5--5-5-|
|--5---5-5-5-5-----------3---3-3-|-5--5------5---5--5---------------------3--3-3-|


  D5             C5               G5                     A5         C5           G5
                        |---3---|  |-3--|   |---3----|
   E  E  E.    S  S  S  S  S    S  S  S S   S   S    S    H         E      S   e   E       +S
|-------10----------10-12h14h==15-14p12-x--------------|-------------------5---8----------------|
|-12h13-------12-13-----------------------(15)p13p==12-|-10---------8b10==(8)r-5---8b10====(8)r-|
|------------------------------------------------------|----------------------------------------|
|------------------------------------------------------|----------------------------------------|
|------------------------------------------------------|----------------------------------------|
|------------------------------------------------------|----------------------------------------|
|
|  E  E  E  E     E     E          E        E             E E E E   E      E     E       E
|------------------------------------------------------|----------------------------------------|
|--3--3--3--------------3------------------------------|--0-0---0----------3--------------------|
|--2--2--2--2-----5----------------4--------4----------|--2-2-2-2---5------------4-------4------|
|--0--0--0--0-----5----------------5--------5----------|--2-2-2-2---5------------5-------5------|
|--0--0--0--0-----3----------------5--------5----------|--0-0-0-0---3------------5-------5------|
|----------------------------------3-------------------|-------------------------3--------------|
|
|  E  E  E  S  S  E     S    S     E        S     S       E E E S S E      S   S E       S  S
|------------------------------------------------------|----------------------------------------|
|------------------------------------------------------|----------------------------------------|
|--7--7--7--7--7--5-----5----5-------------------------|------------5------5---5----------------|
|--7--7--7--7--7--5-----5----5-----5--------5-----5----|--7-7-7-7-7-5------5---5-5-------5--5---|
|--5--5--5--5--5--3-----3----3-----5--------5-----5----|--7-7-7-7-7-3------3---3-5-------5--5---|
|--5--5--5--5--5-------------------3--------3-----3----|--5-5-5-5-5--------------3-------3--3---|


  D5                 A5        C5    G5        A5        C5    G5
 3/4                4/4
   ~~~
  +H           q     H         q     S S E     W
|------------------|-------------------------|-------------------------||
|-(8)----------0---|-0---------0-----0-0-----|-0-----------------------||
|--------------8---|-8---------8-----8-8-----|-8-----------------------||
|--------------7---|-7---------7-----7-7-----|-7-----------------------||
|------------------|-------------------------|-------------------------||
|------------------|-------------------------|-------------------------||
|
|  E  E E  S S E E   E E E E   E E   E   E     E E E E   E E   E E
|--2--2-2----2-----|-0-----------------------|-0-----------------------||
|--3--3-3----3-----|-0-0---0-----3-----------|-0-0---0-----3-----------||
|--2--2-2--2-2-0-0-|-2-2-2-2---5-----4---4---|-2-2-2-2---5-----4-4-----||
|--0--0-0--0---0-0-|-2-2-2-2---5-----5---5---|-2-2-2-2---5-----5-5-----||
|--0--0-0------3-2-|-0-0-0-0---3-----5---5---|-0-0-0-0---3-----5-5-----||
|------------------|-----------------3-------|-----------------3-------||
|
|  E  E E.   S E E   E E E S S E S S E   S S   E E E S S E S S E S S
|------------------|-------------------------|-------------------------||
|------------------|-------------------------|-------------------------||
|--7--7-7----------|-----------5-5-5---------|-----------5-5-5---------||
|--7--7-7----------|-7-7-7-7-7-5-5-5-5---5-5-|-7-7-7-7-7-5-5-5-5-5-5---||
|--5--5-5----------|-7-7-7-7-7-3-3-3-5---5-5-|-7-7-7-7-7-3-3-3-5-5-5---||
|--5--5-5----7-8-7-|-5-5-5-5-5-------3---3-3-|-5-5-5-5-5-------3-3-3---||


 Verse
  A5        C5    G5      A5        C5    G5
  Gtr II
  E E E E   E E   E E     E E E E   E E   E E
|-----------------------|-----------------------|
|---0---0-----3---------|---0---0-----3---------|
|-2-2-2-2---5-----4-4---|-2-2-2-2---5-----4-4---|
|-2-2-2-2---5-----5-5---|-2-2-2-2---5-----5-5---|
|-0-0-0-0---3-----5-5---|-0-0-0-0---3-----5-5---|
|-----------------3-----|-----------------3-----|
|
| Gtr III
| E E E S S E S S E S S   E E E S S E S S E S S
|-----------------------|-----------------------|
|-----------------------|-----------------------|
|-----------5-5-5-------|-----------5-5-5-------|
|-7-7-7-7-7-5-5-5-5-5-5-|-7-7-7-7-7-5-5-5-5-5-5-|
|-7-7-7-7-7-3-3-3-5-5-5-|-7-7-7-7-7-3-3-3-5-5-5-|
|-5-5-5-5-5-------3-3-3-|-5-5-5-5-5-------3-3-3-|


  A5        C5    G5      A5        C5    G5
  E E E E   E E   E E     E E E E   E E   E E
|-0---------------------|-0---------------------|
|-0-0---0-----3---------|-0-0---0-----3---------|
|-2-2-2-2---5-----4-4---|-2-2-2-2---5-----4-4---|
|-2-2-2-2---5-----5-5---|-2-2-2-2---5-----5-5---|
|-0-0-0-0---3-----5-5---|-0-0-0-0---3-----5-5---|
|-----------------3-----|-----------------3-----|
|
| E E E S S E S S E S S   E E E S S E S S E S S
|-----------------------|-----------------------|
|-----------------------|-----------------------|
|-----------5-5-5-------|-----------5-5-5-------|
|-7-7-7-7-7-5-5-5-5-5-5-|-7-7-7-7-7-5-5-5-5-5-5-|
|-7-7-7-7-7-3-3-3-5-5-5-|-7-7-7-7-7-3-3-3-5-5-5-|
|-5-5-5-5-5-------3-3-3-|-5-5-5-5-5-------3-3-3-|


    D5        C5    G5      A5        C5    G5
    E E E E   E E   E E     E E E E   E E   E E    3x
||------------------------|-0----------------------||
||o-3-3-3-------3---------|-0-0---0-----3---------o||
||--2-2-2-2---5-----4-4---|-2-2-2-2---5-----4-4----||
||--0-0-0-0---5-----5-5---|-2-2-2-2---5-----5-5----||
||o-0-0-0-0---3-----5-5---|-0-0-0-0---3-----5-5---o||
||------------------3-----|-----------------3------||
|
|   E E E S S E S S E S S   E E E S S E S S E S S  3x
||------------------------|------------------------||
||o-----------------------|-----------------------o||
||--7-7-7-7-7-5-5-5-------|-----------5-5-5--------||
||--7-7-7-7-7-5-5-5-5-5-5-|-7-7-7-7-7-5-5-5-5-5-5--||
||o-5-5-5-5-5-3-3-3-5-5-5-|-7-7-7-7-7-3-3-3-5-5-5-o||
||--5-5-5-5-5-------3-3-3-|-5-5-5-5-5-------3-3-3--||


     Outro
      D5               A5        C5    G5
     3/4              4/4
      E E E  S S E E   E E E E   E E   E E
|-||--2-2-2----------|-0-----------------------|
|-||o-3-3-3----3-----|-0-0---0-----3-----------|
|-||--2-2-2--2-2-----|-2-2-2-2---5-----4-4-----|
|-||--0-0-0--0---0-0-|-2-2-2-2---5-----5-5-----|
|-||o-0-0-0------3-2-|-0-0-0-0---3-----5-5-----|
|-||-----------------|-----------------3-------|
|
|     E E E.   S E E   E E E S S E S S E S S
|-||-----------------|-------------------------|
|-||o----------------|-------------------------|
|-||--7-7-7----------|-----------5-5-5---------|
|-||--7-7-7----------|-7-7-7-7-7-5-5-5-5-5-5---|
|-||o-5-5-5----------|-7-7-7-7-7-3-3-3-5-5-5---|
|-||--5-5-5----7-8-7-|-5-5-5-5-5-------3-3-3---|


  A5        C5    G5        D5               A5
                           3/4              4/4
  E E E E   E E   E E       E E E  S S E E   q  H.
|-0----------------------||-2-2-2----------|----------*|
|-0-0---0-----3---------o||-3-3-3----3-----|----------*|
|-2-2-2-2---5-----4-4----||-2-2-2--2-2-----|-2--------*|
|-2-2-2-2---5-----5-5----||-0-0-0--0---5-4-|-2--------*|
|-0-0-0-0---3-----5-5---o||-0-0-0------3-2-|-0--------*|
|-----------------3------||----------------|----------*|
|
| E E E S S E S S E S S     E E E.   S E E   q  H.
|------------------------||----------------|----------*|
|-----------------------o||----------------|----------*|
|-----------5-5-5--------||-7-7-7----------|----------*|
|-7-7-7-7-7-5-5-5-5-5-5--||-7-7-7----------|-7--------*|
|-7-7-7-7-7-3-3-3-5-5-5-o||-5-5-5----------|-7--------*|
|-5-5-5-5-5-------3-3-3--||-5-5-5----7-8-7-|-5--------*|



Duration Legend
---------------
W - whole; H - half; Q - quarter; E - 8th; S - 16th; T - 32nd; X - 64th; a - acciaccatura
+ - note tied to previous; . - note dotted; .. - note double dotted
Uncapitalized letters represent notes that are staccato (1/2 duration)
Irregular groupings are notated above the duration line
Duration letters will always appear directly above the note/fret number it represents the
duration for.  Duration letters with no fret number below them represent rests.  Multi-
bar rests are notated in the form Wxn, where n is the number of bars to rest for.  Low
melody durations appear below the staff

Tablature Legend
----------------
 h   - hammer-on
 p   - pull-off
 b   - bend
 pb  - pre-bend
 r   - bend release (if no number after the r, then release immediately)
 /\  - slide into or out of (from/to "nowhere")
 s   - legato slide
 S   - shift slide
 - natural harmonic
[n]  - artificial harmonic
n(n) - tapped harmonic
 ~   - vibrato
 tr  - trill
 T   - tap
 TP  - trem. picking
 PM  - palm muting
\n/  - tremolo bar dip; n = amount to dip
 \n  - tremolo bar down
 n/  - tremolo bar up
/n\  - tremolo bar inverted dip
 =   - hold bend; also acts as connecting device for hammers/pulls
 <> - volume swell (louder/softer)
 x   - on rhythm slash represents muted slash
 o   - on rhythm slash represents single note slash

Misc Legend
-----------
 |  - bar
||  - double bar
||o - repeat start
o|| - repeat end
*|  - double bar (ending)
 :  - bar (freetime)
 $  - Segno
 &  - Coda
Tempo markers -  = BPM(8/16=s8/s16), where s8 = swing 8ths, s16 = swing 16ths





Comments


Popular Bad Religion tabs & chords
52 Seconds Bass Tabs
Automatic Man Bass Tabs
It's A Long Way To The Promise Land Bass Tabs
Pity The Dead 1 Bass Tabs
Too Much To Ask Bass Tabs
Latch Key Kids Chords
Sorrow 7 Chords
Infected 2 Tabs
Punk Rock Song 1 Tabs
Where The Fun Is Tabs


Song lyrics



↑ Back to top | Tablatures and chords are parodies/interpretations of the original songs. You may use it for private study, scholarship, research or language learning purposes only
© 2014 AZChords.com Contact us | Privacy policy | DMCA | Add/correct tabs | Request tabs | Top 50 tabs