» » »

Progress Tabs (ver.1)

Artists:  A B C D E F G H I J K L M N O P Q R S T U V W X Y Z # 

Progress Tabs (ver.1)

Bad Religion
Rating:
0/5 (0 votes)

Hard to play? Try these video lessons and learn fast.
                Notes: this is one of those songs that don't have any set choruses 
so i included the words at the bottom so you dont get confused

Intro (pm)           (3x)then………       
|---------------------------------------------------------|
|---------------------------------------------------------|
|--6666--------------------6666---------------------------|
|--6666-6666-7777-9999-----6666-6666-7777-6---------------|
|--4444-6666-7777-9999-----4444-6666-7777-6---------------|
|-------4444-5555-7777----------4444-5555-4---------------|

Intro part II (no pm)             (x2) then play this note
|---------------------------------------------------------|
|---------------------------------------------------------|
|--------------------------------------66666666-----------|
|--7-7-7-7-6-6-6-6--7-7-7-7--9-9-9-9---66666666-----------|
|--7-7-7-7-6-6-6-6--7-7-7-7--9-9-9-9---44444444-----------|
|--5-5-5-5-4-4-4-4--5-5-5-5--7-7-7-7----------------------|

Verse (repeat throughout)
|---------------------------------------------------------|
|---------------------------------------------------------|
|---------------------------------------------------------|
|--7-7-7-7--9-9-9-9--11111111--7-7-7-7--2-2-2-2-4-4-4-4---|
|--7-7-7-7--9-9-9-9--11111111--7-7-7-7--2-2-2-2-4-4-4-4---|
|--5-5-5-5--7-7-7-7--9-9-9-9---5-5-5-5--0-0-0-0-2-2-2-2---|

|--------------------|
|--------------------|
|--------------------|
|-5-5-5-5------------|
|-5-5-5-5------------|
|-3-3-3-3------------|

lyrics
and progress is not intelligently planned
it's the facade of our heritage, the odor of our land
they speak of progress, in red, white and blue
it's the structure of the future as demise comes seething through
it's the progress till there's nothing left to gain,
as the dearth of new ideas makes us wallow in our shame
                                    
Chorus                             (x2) then…………
|---------------------------------------------------------|
|---------------------------------------------------------|
|--------------------------------------6-6-6-6-6-6-6------|
|--7-7-7-7-6-6-6-6--7-7-7-7--9-9-9-9---6-6-6-6-6-6-6------|
|--7-7-7-7-6-6-6-6--7-7-7-7--9-9-9-9---4-4-4-4-4-4-4------|
|--5-5-5-5-4-4-4-4--5-5-5-5--7-7-7-7----------------------|
so before you go to contribute more
to the destruction of this world you adore,
remember life on earth is but a flash of dawn,
and we're all part of it as the day rolls on

Verse:
Same as the other verse but different words:

and progress is a message that we send
one step closer to the future, one inch closer to the end,
I say progress, is a synonym of time,
we are all aware of it but it's nothing we refine,
and progress, is a debt we all must pay,
it's convenience we all cherish, it's the pollution we disdain

Chorus:
Same as the other chorus but different words
and the edge is dulling,
too many folks to plow through,
just keep your ***ing distance
and it can not include you

Outro:
(3x)
|---------------------------------------------------------|
|---------------------------------------------------------|
|---------------------------------------------------------|
|--7-7-7-7--9-9-9-9--11111111--7-7-7-7--2-2-2-2-4-4-4-4---|
|--7-7-7-7--9-9-9-9--11111111—-7-7-7-7--2-2-2-2-4-4-4-4---|
|--5-5-5-5--7-7-7-7--9-9-9-9—

(1x)
|----------------------------|
|----------------------------|
|----------------------------|
|-7-7-7-7--2-2-2-2-4-4-4-4---|
|-7-7-7-7--2-2-2-2-4-4-4-4---|
|-5-5-5-5--0-0-0-0-2-2-2-2---|
            
Hard to play? Try these video lessons and learn fast. | Correct




comments powered by Disqus
↑ Back to top | Tablatures and chords are parodies/interpretations of the original songs. You may use it for private study, scholarship, research or language learning purposes only