» » »

My Poor Friend Me Tabs (ver.1)

Artists:  A B C D E F G H I J K L M N O P Q R S T U V W X Y Z # 

My Poor Friend Me Tabs (ver.1)

Bad Religion
Rating:
0/5 (0 votes)

Hard to play? Try these video lessons and learn fast.
                
Intro

E---------------------------------------11---------------10-10----:
B--------------------7---7---(11-8)x6-8----(11-8)x4-13-8----------:
G--8-7-5---------8-7---7---7--------------------------------------:
D--------8-7-5-4--------------------------------------------------:
A-----------------------------------------------------------------:
E-----------------------------------------------------------------:


Couplet
E--3------3-3--------3------3-3------3-3--3-3------------3-3--3-3------3-3->
B--3------3-3--------3------3-3------3-3--3-3------------3-3--3-3------3-3->
G--3-8-10-3-3-8-10-5-3-8-10-3-3-8-10-3-3--3-3--8-8--8-8--3-3--3-3-8-8--3-3->
D--0-8-10-0-0-8-10-5-0-8-10-0-0-8-10-0-0--0-0--8-8--8-8--0-0--0-0-8-8--0-0->
A----6-8------6-8--3---6-8------6-8------------6-6--6-6-----------6-6------>
E-------------------------------------------------------------------------->



E--3------3-3--------3------3-3------3--:
B--3------3-3--------3------3-3------3--:
G--3-8-10-3-3-8-10-5-3-8-10-3-3-8-10-3--:
D--0-8-10-0-0-8-10-5-0-8-10-0-0-8-10-0--:
A----6-8------6-8--3---6-8------6-8-----:
E---------------------------------------:



Refrain
E-----------------------------------------------------------------------:
B-----------------------------------------------------------------------:
G-----------------------------------------------------------------------:
D-----------------------------------------------------------------------:
A--6-5-3---------6-5-3----------------------6-5-3---------6-5-3---------:
E--------6-5-3-2-------6-5-3----------------------6-5-3-2-------6-5-3---:
                             "great dichonomy"



couplet
E--3-3--3-3------------3-3--3-3----------------:
B--3-3--3-3------------3-3--3-3----------------:
G--3-3--3-3--8-8--8-8--3-3--3-3--8-8--10-10----:
D--0-0--0-0--8-8--8-8--0-0--0-0--8-8--10-10----:
A------------6-6--6-6------------6-6--8--8-----:
E----------------------------------------------:





Couplet
E--3------3-3--------3------3-3------3-3--3-3------------3-3--3-3------3-3-:
B--3------3-3--------3------3-3------3-3--3-3------------3-3--3-3------3-3-:
G--3-8-10-3-3-8-10-5-3-8-10-3-3-8-10-3-3--3-3--8-8--8-8--3-3--3-3-8-8--3-3-:
D--0-8-10-0-0-8-10-5-0-8-10-0-0-8-10-0-0--0-0--8-8--8-8--0-0--0-0-8-8--0-0-:
A----6-8------6-8--3---6-8------6-8------------6-6--6-6-----------6-6------:
E--------------------------------------------------------------------------:




Pont
E---------------------------------------------:
B---------------------------------------------:
G--5--3--10--8-10-12--5--3--10--8-7-----------:
D--5--3--10--8-10-12--5--3--10--8-7-----------:
A--3--1--8---6-8--10--3--1--8---6-5-----------:
E---------------------------------------------:



Solo
As you wish!



Couplet
E--3------3-3--------3------3-3------3--:
B--3------3-3--------3------3-3------3--:
G--3-8-10-3-3-8-10-5-3-8-10-3-3-8-10-3--:
D--0-8-10-0-0-8-10-5-0-8-10-0-0-8-10-0--:
A----6-8------6-8--3---6-8------6-8-----:
E---------------------------------------:




Refrain
E-----------------------------------------------------------------------:
B-----------------------------------------------------------------------:
G-----------------------------------------------------------------------:
D-----------------------------------------------------------------------:
A--6-5-3---------6-5-3----------------------6-5-3---------6-5-3---------:
E--------6-5-3-2-------6-5-3----------------------6-5-3-2-------6-5-3---:
                             "tragic history"




couplet
E--3-3--3-3-----------)  ---3----:
B--3-3--3-3-----------)  ---3----:
G--3-3--3-3--8-8--8-8-)  ---3----:
D--0-0--0-0--8-8--8-8-)x3---0----:
A------------6-6--6-6-)  --------:
E---------------------)  --------:
            
Hard to play? Try these video lessons and learn fast. | Correct




comments powered by Disqus
↑ Back to top | Tablatures and chords are parodies/interpretations of the original songs. You may use it for private study, scholarship, research or language learning purposes only