» » »

Faith In God Tabs (ver.1)

Artists:  A B C D E F G H I J K L M N O P Q R S T U V W X Y Z # 

Faith In God Tabs (ver.1)

Bad Religion
Rating:
0/5 (0 votes)

Hard to play? Try these video lessons and learn fast.
                Tuning: Standard E  (EADGBE)

Listen to the song. It'll all make sense!

INTRO:
      B5     A5    C5    A5    C5
e|---------------------------------------------------------------------------|
B|---------------------------------------------------------------------------|
G|---------------------------------------------------------------------------|
D|----9-------7----10-----7----10--------------------------------------------|
A|----9-------7----10-----7----10--------------------------------------------|
E|----7-------5-----8-----5-----8--------------------------------------------|

First Part (It's alright to have faith in god)
      B5              G5 hi                B5               G5 lo
e|---------------------------------------------------------------------------|
B|---------------------------------------------------------------------------|
G|--------------------12--12--12-12-12--12-----------------------------------|
D|----9--9-9--9--9-9--12--12--12-12-12--12-9--9-9--9--9-9---5-5--5-5--5-5----|
A|----9--9-9--9--9-9--10--10--10-10-10--10-9--9-9--9--9-9---5-5--5-5--5-5----|
E|----7--7-7--7--7-7-----------------------7--7-7--7--7-7---3-3--3-3--3-3----|

Second Part (You're living on a mound of dirt)
    B5       A5  C5     A5  C5      B5       A5  C5     A5   C5
e|---------------------------------------------------------------------------|
B|---------------------------------------------------------------------------|
G|---------------------------------------------------------------------------|
D|--9-9--9---7-7-10-10--7-7-10-10---9-9--9---7-7-10-10--7-7-10-10------------|
A|--9-9--9---7-7-10-10--7-7-10-10---9-9--9---7-7-10-10--7-7-10-10------------|
E|--7-7--7---5-5--8--8--5-5--8--8---7-7--7---5-5--8--8--5-5--8--8------------|

Riff changes after "so you'll always have god" to
      A5         C5           A5         C5
e|---------------------------------------------------------------------------|
B|---------------------------------------------------------------------------|
G|---------------------------------------------------------------------------|
D|----7--7-7--7--10-1010-10---7--7-7--7--10-1010-10--------------------------|
A|----7--7-7--7--10-1010-10---7--7-7--7--10-1010-10--------------------------|
E|----5--5-5--5---8--8-8--8---5--5-5--5---8--8-8--8--------------------------|

And thats all! Enjoy!

| /  slide up
| \  slide down
| h  hammer-on
| p  pull-off
| ~  vibrato
| +  harmonic
| x  Mute note
| :  Let ring
            
Hard to play? Try these video lessons and learn fast. | Correct




comments powered by Disqus
↑ Back to top | Tablatures and chords are parodies/interpretations of the original songs. You may use it for private study, scholarship, research or language learning purposes only