>
 >
Destined For Nothing

Destined For Nothing Guitar Tabs

Bad Religion - Destined For Nothing chords, tabs, tablatures, lyrics

Guitar lessons | Add/correct | Request | Top 50 tabs Artists:  A B C D E F G H I J K L M N O P Q R S T U V W X Y Z 0-9

Destined For Nothing Guitar Tabs – Bad Religion

CD, Sheet music, Poster

Do you like Destined For Nothing? Share with your friends now
Tabs
Intro
e|--------------------------------------------------|
B|--------------------------------------------------|
G|--------------------------------------------------|
D|--7-7-77-7-10-10-10-10----------------------------|
A|--5-5-55-5--8--8--8--8--8-8-88-8--10-10-10-10-10--|
E|------------------------6-6-66-6---8--8--8--8--8--|

e|------------------------------------|
B|------------------------------------|
G|------------------------------------|
D|--7-7-77-7--10-10-10-10-------------|
A|--5-5-55-5---8--8--8--8--7-7-7-7-7--|
E|-------------------------5-5-5-5-5--|

Verse
e|----------------------------------------------------|
B|----------------------------------------------------|
G|----------------------------------------------------|
D|--------------10-10-10-10-10--5-5-5-5-5-----5-5--7--|
A|--12\10~~------8--8--8--8--8--3-3-3-3-3--5--3-3--5--|
E|--10\-8~~--------------------------------3----------|

Pre-Chorus
e|--------------------------------------------------------------|
B|--------------------------------------------------------------|
G|--------------------------------------------------------------|
D|--10-10-10----------------------------10-10-10----------------|
A|---8--8--8--10-10-10--8-8-8------------8--8--8--10-10-10--12--|
E|-------------8--8--8--6-6-6--6p5h6h8-------------8--8--8--10--|

Chorus
e|------------------------------------------------------------|
B|------------------------------------------------------------|
G|------------------------------------------------------------|
D|-------------------10------10------7-7-7--------------------|
A|--7-7-7--5-5-5--7---8--10---8--10--5-5-5--8-8-8--3-3-3-3/5--|
E|--5-5-5--3-3-3--5-------8-------8---------6-6-6--1-1-1-1/3--|

e|--------------------------------------------------------------|
B|--------------------------------------------------------------|
G|--------------------------------------------------------------|
D|--7-7-7-7--5-5--7--10------10---------------5-5-5-5-----------|
A|--5-5-5-5--3-3--5---8--10---8--10--8-8-8-8--3-3-3-3--7-7-7-7--|
E|------------------------8-------8--6-6-6-6-----------5-5-5-5--|

e|---------------------------------------------|
B|---------------------------------------------|
G|---------------------------------------------|
D|---------------------------------------------|
A|--8-8-8-8--10-10-10-10--12~~-----------------|
E|--6-6-6-6---8--8--8--8--10~~--5h6p5h6p5h6p5--|

Fill
e|-----------------------------------------------------------------------------|
B|-----------------------------------------------------------------------------|
G|-----------------------------------------------------------------------------|
D|--10h12~~--10h12~~--10h12~~~~10--12p10h12--10h12~~--10h12~~--10~~--12p10h12--|
A|-----------------------------------------------------------------------------|
E|-----------------------------------------------------------------------------|

Bridge
e|----------------------------------------------------------------------|
B|----------------------------------------------------------------------|
G|----------------------------------------------------------------------|
D|--7-7-7-7-7-7-7-7--5-5-5-5-5-5-5-5-------------------5-5-5-5-5-5-5-5--|
A|--5-5-5-5-5-5-5-5--3-3-3-3-3-3-3-3--8-8-8-8-8-8-8-8--3-3-3-3-3-3-3-3--|
E|------------------------------------6-6-6-6-6-6-6-6-------------------|

Chorus
e|------------------------------------------------------------|
B|------------------------------------------------------------|
G|------------------------------------------------------------|
D|-------------------10------10------7-7-7--------------------|
A|--7-7-7--5-5-5--7---8--10---8--10--5-5-5--8-8-8--3-3-3-3/5--|
E|--5-5-5--3-3-3--5-------8-------8---------6-6-6--1-1-1-1/3--|

e|--------------------------------------------------------------|
B|--------------------------------------------------------------|
G|--------------------------------------------------------------|
D|--7-7-7-7--5-5--7--10------10---------------5-5-5-5-----------|
A|--5-5-5-5--3-3--5---8--10---8--10--8-8-8-8--3-3-3-3--7-7-7-7--|
E|------------------------8-------8--6-6-6-6-----------5-5-5-5--|

Outro
e|--------------------------------------------------|
B|--------------------------------------------------|
G|--------------------------------------------------|
D|--7-7-77-7-10-10-10-10----------------------------|
A|--5-5-55-5--8--8--8--8--8-8-88-8--10-10-10-10-10--|
E|------------------------6-6-66-6---8--8--8--8--8--|

e|---------------------------------|
B|---------------------------------|
G|---------------------------------|
D|--7-77--5-5--77--7-77--5--7------|
A|--5-55--3-3--55--5-55--3--5------|
E|---------------------------------|





Comments


Popular Bad Religion tabs & chords
American Jesus Bass Tabs
Bad Religion 4 Bass Tabs
No Control Bass Tabs
There Will Be A Way Bass Tabs
All Along Tabs
Part Iii 1 Tabs
Resist Stance Intro 1 Tabs
The Same Person 1 Tabs
Whisper In Time Tabs
Dont Sell Me Short Ukulele


Song lyrics



↑ Back to top | Tablatures and chords are parodies/interpretations of the original songs. You may use it for private study, scholarship, research or language learning purposes only
© 2014 AZChords.com Contact us | Privacy policy | DMCA | Add/correct tabs | Request tabs | Top 50 tabs