» » »

Bad Religion, Can't Stop It Tabs (ver.1)

Artists:  A B C D E F G H I J K L M N O P Q R S T U V W X Y Z # 

Can't Stop It Tabs (ver.1)

Bad Religion Tabs
Rating:
0/5 (0 votes)
Can't Stop It lessons Tabs too difficult? Try these video lessons and learn fast
                Notes: Its a pretty straightforward (and very short) song.  
There's some tricky rhythm in the intro 
but just listen to the song and you'll get it in a snap

Intro: (4) (substitute 8 10 10 2nd and 4th time)
|---------------------------------------------------------|
|---------------------------------------------------------|
|-4-4-4--5-5-5---------8-8------10-10---------------------|
|-4-4-4--5-5-5--7-7-7--8-8------10-10---------------------|
|-2-2-2--3-3-3--7-7-7--6-6------8--8----------------------|
|---------------5-5-5-------------------------------------|

Verses
|---------------------------------------------------------|
|---------------------------------------------------------|
|-4-4-4-4-4-4-4-4--5-5-5-5-5-5-5-5-5--7-5--4-4-4-4-4-4-4-4|
|-4-4-4-4-4-4-4-4--5-5-5-5-5-5-5-5-5--7-5--4-4-4-4-4-4-4-4|
|-2-2-2-2-2-2-2-2--3-3-3-3-3-3-3-3-3--5-3--2-2-2-2-2-2-2-2|
|---------------------------------------------------------|
                        Let’s get it right/set this straight
|---------------------------------------------------------|
|---------------------------------------------------------|
|--------------4---7----4-4-4-4-4-4-4-4-------------------|
|-5-5-5-5-5-5--4-5-7-7--4-4-4-4-4-4-4-4-5-5-5-5-5-5-------|
|-5-5-5-5-5-5--2-5-5-7--2-2-2-2-2-2-2-2-5-5-5-5-5-5-------|
|-3-3-3-3-3-3----3---5------------------3-3-3-3-3-3-------|

|---------------------------------------------------------|
|---------------------------------------------------------|
|---------------------------------------------------------|
|-7-7-7-7-7-7-7--4-4-4-4-4-4------------------------------|
|-7-7-7-7-7-7-7--4-4-4-4-4-4------------------------------|
|-5-5-5-5-5-5-5--2-2-2-2-2-2------------------------------|

Chorus
(And I….)
|---------------------------------------------------------|
|---------------------------------------------------------|
|--4-4----------------------------------------------------|
|--4-4--5-5--7-7--4-4---5-5-5-5—-7-7-7-7--9-9-9-9---------|
|--2-2--5-5--7-7--4-4---5-5-5-5--7-7-7-7--9-9-9-9---------|
|-------3-3--5-5--2-2---3-3-3-3--5-5-5-5--7-7-7-7---------|

(Intro twice)
(Verse)
(Chorus)

Outro
|---------------------------------------------------------|
|---------------------------------------------------------|
|-4-4-4--5-5-5---------8-8--4-----------------------------|
|-4-4-4--5-5-5--7-7-7--8-8--4-----------------------------|
|-2-2-2--3-3-3--7-7-7--6-6--2-----------------------------|
|---------------5-5-5-------------------------------------|
            

comments powered by Disqus
↑ Back to top | Bad Religion Tabs for Can't Stop It. Lyrics for acoustic guitar and electric guitar. Tablatures and chords are parodies/interpretations of the original songs. You may use it for private study, scholarship, research or language learning purposes only