» » »

Boot Stamping On A Human Face Forever Tabs (ver.1)

Artists:  A B C D E F G H I J K L M N O P Q R S T U V W X Y Z # 

Boot Stamping On A Human Face Forever Tabs (ver.1)

Bad Religion
Rating:
0/5 (0 votes)

Hard to play? Try these video lessons and learn fast.
                Bad Religion



Intro 

e|---------------------------------------------------------|
B|---------------------------------------------------------|
G|---------------------------------------------------------|
D|--7-7-7h8p7--3--8-7~~---7-7-7h8p7--5--0--3--3--3--5-2~~--| X2
A|---------------------------------------------------------|
E|---------------------------------------------------------|



Verse (“Drop dead, it doesn’t matter she said.....”) - clean

e|---5---x---0---x---5---x---0---x---5---x---3---x---1---x-------x---|
B|---6---x---3---x---6---x---3---x---6---x---3---x---1---x---2---x---|
G|---7---x---3---x---7---x---3---x---7---x---3---x---2---x---2---x---|
D|---0---x---3---x---0---x---3---x---0---x---5---x---3---x---2---x---| X2
A|---0---x---1---x---0---x---1---x---0---x---5---x---3---x-------x---|
E|-------x---0---x-------x---0---x-------x---3---x---1---x-------x---|
    Dm      A#      Dm      A#      Dm      Gm       F       A



Chorus (“You can’t win.....”)

e|----------------------------|     |--------------------------|
B|----------------------------|     |--3~----------------------|
G|--9~------4~--2~-------2~~--|     |--2~---------5~------3~~--|
D|--9~--4~--4~--2~--5~~--2~~--| X3  |--0~--5~--3--5~--5---3~~--|   
A|--7~--4~--2~--0---5~~--0~~--|     |------5~--3--3~--5---1~~--|
E|------2~----------3~~-------|     |------3~--1------3--------|
        
                                                        
Intro X1


Verse (“Don’t ever dare to hope he said.....”) - clean


Chorus (“You can’t win.....”)


Solo 
e|---------------------------------------------------------|
B|---------------------------------------------------------|
G|---------------------------------------------------------|
D|--7~~---7-7-7h8p7--3~--7h8p7~~---14-16-18-16~--16h17p16--|
A|---------------------------------------------------------|
E|---------------------------------------------------------|

e|-----------------------------------------|
B|-----------------------------------------|
G|-----------------------------------------|
D|--15-16--18^--20-19/18~--18-17/16~--19/--|
A|-----------------------------------------|
E|-----------------------------------------|

e|------------------------------------------------------------------|
B|------------------------------------------------------------------|
G|------------------------------------------------------------------|
D|--8-11-12--13-13^--15-15^--17/13—11v-----------14h15-14~--12/10v--|
A|--------------------------------------17/15v/---------------------|
E|------------------------------------------------------------------|


Verse (“With good books and looks on their side.....”) – clean


Chorus (“You can’t win.....”)  
            
Hard to play? Try these video lessons and learn fast. | Correct




comments powered by Disqus
↑ Back to top | Tablatures and chords are parodies/interpretations of the original songs. You may use it for private study, scholarship, research or language learning purposes only