» » »

Bad Religion, Ad Hominem Tabs (ver.1)

Artists:  A B C D E F G H I J K L M N O P Q R S T U V W X Y Z # 

Ad Hominem Tabs (ver.1)

Bad Religion Tabs
Rating:
0/5 (0 votes)
Ad Hominem lessons Tabs too difficult? Try these video lessons and learn fast
                
Tuning: Standard

Main Riff
e|--------------------------------------------------------------------------|
B|--------------------------------------------------------------------------|
G|------5-7------5-7--------------------------------------------------------|
D|-7777-5-7-7777-5-7--------------------------------------------------------|
A|-7777-3-5-7777-3-5--------------------------------------------------------|
E|-5555-----5555------------------------------------------------------------|

Verse (do this riff and then back to the main riff)
e|--------------------------------------------------------------------------|
B|--------------------------------------------------------------------------|
G|------5555----------------------------------------------------------------|
D|-7777-5555-5555-2222------------------------------------------------------|
A|-7777-3333-5555-2222------------------------------------------------------|
E|-5555------3333-0000------------------------------------------------------|

Pre-chorus
e|--------------------------------------------------------------------------|
B|--------------------------------------------------------------------------|
G|-77777777-5555---------2222-5-7-2222-5-7-77777777-99999-9-----------------|
D|-77777777-5555---------2222-5-7-2222-5-7-77777777-99999-9-----------------|
A|-55555555-3333-2-0---0-0000-3-5-0000-3-5-55555555-77777-7-----------------|
E|-------------------3------------------------------------------------------|

Chorus
e|--------------------------------------------------------------------------|
B|--------------------------------------------------------------------------|
G|10-x8-12-x8-9-x8------------10-x8-12-x8-9-x4-12-x4------------------------|
D|10----12----9---10-x4-9-x4--10----12----9----12---------------------------|
A|-8----10----7---10----9------8----10----7----10---------------------------|
E|-----------------8----7---------------------------------------------------|

Solo

Bridge
e|--------------------------------------------------------------------------|
B|--------------------------------------------------------------------------|
G|-----------------------5555------------------555555-99999-9---------------|
D|-3333-5555-77-55-33-55-5555-5555-77-55-33-55-555555-99999-9---------------|
A|-3333-5555-77-55-33-55-3333-5555-77-55-33-55-333333-77777-7---------------|
E|-1111-3333-55-33-11-33------3333-55-33-11-33------------------------------|
            

comments powered by Disqus
↑ Back to top | Bad Religion Tabs for Ad Hominem. Lyrics for acoustic guitar and electric guitar. Tablatures and chords are parodies/interpretations of the original songs. You may use it for private study, scholarship, research or language learning purposes only