>
 >
21st Century (Digital Boy) 2

21st Century (Digital Boy) 2 Guitar Tabs

Bad Religion - 21st Century (Digital Boy) 2 chords, tabs, tablatures, lyrics

Guitar lessons | Add/correct | Request | Top 50 tabs Artists:  A B C D E F G H I J K L M N O P Q R S T U V W X Y Z 0-9

21st Century (Digital Boy) 2 Guitar Tabs – Bad Religion

CD, Sheet music, Poster

Do you like 21st Century (Digital Boy) 2? Share with your friends now
Bass TabsChordsChords v2TabsTabs v2Tabs v3
Intro
-----------------|-----------------|
-----------------|-----------------|
-6-6-6-6-6-6-6-6-|-6-6-6-6-6-6-6-6-|
-6-6-6-6-6-6-6-6-|-6-6-6-6-6-6-6-6-|
-4-4-4-4-4-4-4-4-|-4-4-4-4-4-4-4-4-|
-----------------|-----------------|
                                                         
Verse
-----------------|-----------------|
-----------------|-----------------|
-6-6-------------|-----------------|
-6-6-----2-2-----|-4-4-----7-7-6-6-|
-4-4-----2-2-----|-4-4-----7-7-6-6-|
-----x-x-0-0-x-x-|-2-2-x-x-5-5-4-4-|X2

-----------------|-----------------|-----------------|---|
-----------------|-----------------|-----------------|---|
-6-6-6-6---------|-4-4-4-4---------|-6-6-------------|---|
-6-6-6-6-2-2-2-2-|-4-4-4-4-4-4-4-4-|-6-6-----2-2-2-4-|-6-|
-4-4-4-4-2-2-2-2-|-2-2-2-2-4-4-4-4-|-4-4-----2-2-2-4-|-6-|
---------0-0-0-0-|---------2-2-2-2-|-----x-x-0-0-0-2-|-4-|

Pre Chorus
-----------------|-----------------|
-----------------|-----------------|
-----------------|-----------------|
-6-6-6-6-6-6-6-6-|-6-6-6-6-6-6-6-6-|
-6-6-6-6-6-6-6-6-|-6-6-6-6-6-6-6-6-|
-4-4-4-4-4-4-4-4-|-4-4-4-4-4-4-4-4-|
                                                    
Chorus
-----------------|-----------------|
-----------------|-----------------|
-6-6-6-6-2-2-2-2-|---------4-4-4-4-|
-6-6-6-6-2-2-2-2-|-2-2-2-2-4-4-4-4-|
-4-4-4-4-0-0-0-0-|-2-2-2-2-2-2-2-2-|
-----------------|-0-0-0-0---------|X2                       

-----------------|-----------------|
-----------------|-----------------|
-6-6-6-6-2-2-2-2-|-----------------|
-6-6-6-6-2-2-2-2-|-2-2-2-2-4-4-4-4-|
-4-4-4-4-0-0-0-0-|-2-2-2-2-4-4-4-4-|
-----------------|-0-0-0-0-2-2-2-2-|X2
                                              
Pre Chorus
                                                      
Verse

Pre Chorus

Chorus

Pre Chorus
                                             
Bridge
-----------------|-----------------|
-----------------|-----------------|
-4-4-4-4-4-4-4-4-|-4-4-4-4-4-4-4-4-|
-4-4-4-4-4-4-4-4-|-4-4-4-4-4-4-4-4-|
-2-2-2-2-2-2-2-2-|-2-2-2-2-2-2-2-2-|
-----------------|-----------------|

-----------------|-----------------|
-----------------|-----------------|
-----------------|-----------------|
-4-4-4-4-4-4-4-4-|-4-4-4-4-4-4-4-4-|
-4-4-4-4-4-4-4-4-|-4-4-4-4-4-4-4-4-|
-2-2-2-2-2-2-2-2-|-2-2-2-2-2-2-2-2-|

---|---|
---|---|
---|---|
-7-|-2-|
-7-|-2-|
-5-|-0-|
                                            
--------|-----------------|
--------|-----------------|
--------|-----------------|
-6----6-|-6-6-6-6-6-6-6-6-|
-6----6-|-6-6-6-6-6-6-6-6-|
-4----4-|-4-4-4-4-4-4-4-4-|

Solo
Rhythm guitar
-----------------|-----------------|
-----------------|-----------------|
-6-6-6-6-2-2-2-2-|---------4-4-4-4-|
-6-6-6-6-2-2-2-2-|-2-2-2-2-4-4-4-4-|
-4-4-4-4-0-0-0-0-|-2-2-2-2-2-2-2-2-|
-----------------|-0-0-0-0---------|X2

-----------------|-----------------|
-----------------|-----------------|
-6-6-6-6-2-2-2-2-|-----------------|
-6-6-6-6-2-2-2-2-|-2-2-2-2-4-4-4-4-|
-4-4-4-4-0-0-0-0-|-2-2-2-2-4-4-4-4-|
-----------------|-0-0-0-0-2-2-2-2-|X2
                                       
+ the Pre Chorus

Lead guitar:
-12b14-12b14-12b14------------9--------------------------------------------
-------------------11b13r11-----11b13-11b13r11b9----9----------------------
----------------------------9--------------------11------------------------
                                                                              

-------12b14-14b16-14b16r14p12----12---------------------------------------
-12b14-------------------------14----12------------------------------------
----------------------------------------11b13-11b13br11p9----9-------------
----------------------------------------------------------11---11p9-11-----

Chorus 2X

Pre Chorus 2X

Outro
-------------------------|-------------------------------------------------
-------------------------|-------------------------------------------------
-6-------6-6-6-6-6-6-6-6-|-6-\---------------------------------------------
-6-------6-6-6-6-6-6-6-6-|-6-\---------------------------------------------
-4-------4-4-4-4-4-4-4-4-|-4-\---------------------------------------------
-------------------------|-------------------------------------------------





Comments


Popular Bad Religion tabs & chords
21st Century (Digital Boy) Bass Tabs
American Jesus 3 Bass Tabs
F*** Armageddon Bass Tabs
Only Entertainment Bass Tabs
Faith Alone Chords
Pride And The Pallor Chords
Get Off Tabs
Los Angeles Is Burning 1 Tabs
Part Iii 1 Tabs
Requiem For Dissent Tabs


Song lyrics



↑ Back to top | Tablatures and chords are parodies/interpretations of the original songs. You may use it for private study, scholarship, research or language learning purposes only
© 2014 AZChords.com Contact us | Privacy policy | DMCA | Add/correct tabs | Request tabs | Top 50 tabs