» » »

Shining Tabs (ver.1)

Artists:  A B C D E F G H I J K L M N O P Q R S T U V W X Y Z # 

Shining Tabs (ver.1)

Badly Drawn Boy
Rating:
0/5 (0 votes)

Hard to play? Try these video lessons and learn fast.
                
THE SHINING
Badly Drawn Boy


Verse

e---0----------0-----------
B---0----------2-----------
G---1----------1----1------
D---2----2-----2--2---2----
A---2--2---2---0-----------
E---0----------------------

"to put a little bit of sunshine in your life..."

e-------0---0-----
B---4---2---0-----
G---4---2---1-----
D---4---2---2-----
A---2---0---2-----
E-----------0-----

e---0--2--0---0---3--2------0----
B---0--0--0---2---2--2--2---0----
G---1--1--1---1---1--1--1---1----
D---2--2--2---2---2--2--2---2----
A---2--2--2---0---0--0--0---2----
E---0--0--0-----------------0----


Bridge

e---0----0-----0----0----0----0------
B---0----0-----0----2----2----2------
G---1--0h1---0h1----1--0h1--0h1------
D---2----2-----2----2----2----2------
A---2----2-----2----0----0----0------
E---0----0-----0---------------------

Faith pors from your walls, 
drowning your calls
ive tried to hear
youre not near.....

re-mem-bering when
i saw your face
shinning my way
pur timing.......

now ive fallen in deep
slow silent sleep
its killing me
im dying......

[bridge]

to put a little sunshine in your life

[chorus]

soliel all over you
warm sun 
pours over me

soliel all over you you
warm sun

this 
slick fallen rift
came like a gift
your body moves
ever nearer.....

and you
will dry this tear
now that we're here
and grieve for me
not history...........

but now
im dry of thoughts
wait for the rain
then its replaced
sun setting

[bridge]

And suddenly you're in love
with everything

[chorus]
            
Hard to play? Try these video lessons and learn fast. | Correct




comments powered by Disqus
↑ Back to top | Tablatures and chords are parodies/interpretations of the original songs. You may use it for private study, scholarship, research or language learning purposes only