>
 >
No One Knows

No One Knows Guitar Tabs

Badfinger - No One Knows chords, tabs, tablatures, lyrics

Guitar lessons | Add/correct | Request | Top 50 tabs Artists:  A B C D E F G H I J K L M N O P Q R S T U V W X Y Z 0-9

No One Knows Guitar Tabs – Badfinger

CD, Sheet music, Poster

Do you like No One Knows? Share with your friends now
Tabs
No one knows it
No one knows it
No one knows it, no
No one knows how good I feel
When I see you glow

No one knows it
No one knows it
No one knows it, no
No one knows how good I feel
When you let it show

Keep it coming, keep it long
Caress me with your body song
Reach it higher with each sigh
Knowing soon that we will fly

No one knows it
No one knows it
No one knows it, no
No one knows how good I feel
When I see you glow

No one knows it
No one knows it
No one knows it, no
No one knows how good I feel
When you let it flow

Keep it moving, keep it bright
And guide me with your body light
Come in closer within sight
Knowing soon that we will fly


[Mika's Japanese cooing over 
 guitar solo (Pete Ham):


No one knows
No one knows
No one knows
No one knows how good I feel
When you let it show
No one knows
No one knows how good I feel
When you let it flow.]

Keep on feeling, keep it whole
And lead me with your body soul
Take me higher with each sigh
Knowing you can make me fly

No one knows it
No one knows it
No one knows it, no
No one knows how good I feel
When I see you glow.






                                     
  Cmaj7                           G               A
e|0------ ------- ------- -------|3------ ------- 0------ -------|
B|0------------------------------|0---------------2--------------|
G|0------------------------------|0---------------2--------------|
D|2------------------------------|0---------------2--------------|
A|3------------------------------|2---------------0--------------|
E|3------------------------------|3------------------------------|
  *
e|7------- ------- ------- ------|7------ ------- 9------ -------|
B|8------------------------------|8--------------10--------------|
G|9------------------------------|7---------------9--------------|
D10------------------------------|5---------------7--------------|
A|-------------------------------|-------------------------------|
E|8------------------------------|-------------------------------|


                                      X X X   X X X   X X X X X         
  E                         Esus4 E
e|0------ ------- ------- -------|------- ------- ------- -------|
B|0------------------------------|0------------------------------|
G|1-----------------------1-H-2--|1------------------------------|
D|2-------------------2---2------|2------------------------------|
A|2-----------------------2------|2------------------------------|
E|0------------------------------|-------------------------------|

e|7------ ------- ------- -------|------- ------- ------- -------|
B|9------------------------------|-------------------------------|
G|9------------------------------|-------------------------------|
D|9------------------------------|-------------------------------|
A|7------------------------------|-------------------------------|
E|-------------------------------|-------------------------------|



  Cmaj7                           G               A
e|0------ ------- ------- -------|3------ ------- 0------ -------|
B|0------------------------------|0---------------2--------------|
G|0------------------------------|0---------------2--------------|
D|2------------------------------|0---------------2--------------|
A|3------------------------------|2---------------0--------------|
E|3------------------------------|3------------------------------|
  
e|7------- ------- ------- ------|7------ ------- 9------ -------|
B|8------------------------------|8--------------10--------------|
G|9------------------------------|7---------------9--------------|
D10------------------------------|5---------------7--------------|
A|-------------------------------|-------------------------------|
E|8------------------------------|-------------------------------|


                                      X X X   X X X   X X X X X         
  E
e|0------ ------- ----0-- ----0--|0------ ------- ------- -------|
B|0-------------------0-------0--|0------------------------------|
G|1-------------------1-------1--|1------------------------------|
D|2-------------------2-------2--|2-------2---2---2---2---2---2--|
A|2-------------------2-------2--|2-------2---2---2---2---2---2--|
E|0-------------------0-------0--|0-------0---0---0---0---0---0--|

e|7------ ------- ------- -------|------- ------- ------- -------|
B|9------------------------------|-------------------------------|
G|9------------------------------|-------------------------------|
D|9------------------------------|-------------------------------|
A|7------------------------------|-------------------------------|
E|-------------------------------|-------------------------------|




e|0------ 0------ 0---0-- 0------|0------ 0------ 0------ 0---0--|
B|0-------0-------0---0---0------|0-------0-------0-------0---0--|
G|1-------1-------1---1---1------|1-------1-------1-------1---1--|
D|2-------2-------2---2---2------|2-------2-------2-------2---2--|
A|2-------2-------2---2---2------|2-------2-------2-------2---2--|
E|0-------0-------0---0---0------|0-------0-------0-------0---0--|
  No  one     knows   it          no  one     knows   it
e|------- ------- ------- -------|------- ------- ------- -------|
B|----------------9--------------|----------------9--------------|
G|--------9---------------9------|--------9---------------9------|
D|9------------------------------|9------------------------------|
A|-------------------------------|-------------------------------|
E|-------------------------------|-------------------------------|



                                  F#m
e|0---0-- 0------ 0------ 0------|2------ 2------ 2---2-- 2------|
B|0---0---0-------0-------0------|2-------2-------2---2---2------|
G|1---1---1-------1-------1------|2-------2-------2---2---2------|
D|2---2---2-------2-------2------|4-------4-------4---4---4------|
A|2---2---2-------2-------2------|4-------4-------4---4---4------|
E|0---0---0-------0-------0------|2-------2-------2---2---2------|
  No  one     knows   it,     no
e|------- ------- ------- -------|------- ------- ------- -------|
B|----------------9--------------|----------------10-------------|
G|--------9---------------9------|--------11--------------11-----|
D|9------------------------------|11-----------------------------|
A|-------------------------------|-------------------------------|
E|-------------------------------|-------------------------------|



                                  B
e|2------ 2------ 2---2-- 2---2--|2---2-- 2------ 2------ 2------|
B|2-------2-------2---2---2---2--|4---4---4-------4-------4------|
G|2-------2-------2---2---2---2--|4---4---4-------4-------4------|
D|4-------4-------4---4---4---4--|4---4---4-------4-------4------|
A|4-------4-------4---4---4---4--|2---2---2-------2-------2------|
E|2-------2-------2---2---2---2--|-------------------------------|
  No  one     knows       how     good I      feel
e|------- ------- ------- -------|------- ------- ------- -------|
B|-------------------------------|----------------7--------------|
G|----------------10-------------|--------8---------------8------|
D|--------11--------------11-----|9------------------------------|
A|11-----------------------------|-------------------------------|
E|-------------------------------|-------------------------------|



                                  E
e|2------ 2---2-- 2------ 2------|0------ 0---0-- 0---0-- 0---0--|
B|4-------4---4---4-------4------|0-------0---0---0---0---0---0--|
G|4-------4---4---4-------4------|1-------1---1---1---1---1---1--|
D|4-------4---4---4-------4------|2-------2---2---2---2---2---2--|
A|2-------2---2---2-------2------|2-------2---2---2---2---2---2--|
E|-------------------------------|0-------0---0---0---0---0---0--|
  When I      see     you     glow
e|------- ------- ------- -------|------- ------- ------- -------|
B|----------------7--------------|----------------9--------------|
G|--------8---------------8------|--------9---------------9------|
D|9------------------------------|9------------------------------|
A|-------------------------------|-------------------------------|
E|-------------------------------|-------------------------------|   




e|0---0-- 0---0-- 0------ 0---0--|0---0-- 0------ 0---0-- 0------|
B|0---0---0---0---0-------0---0--|0---0---0-------0---0---0------|
G|1---1---1---1---1-------1---1--|1---1---1-------1---1---1------|
D|2---2---2---2---2-------2---2--|2---2---2-------2---2---2------|
A|2---2---2---2---2-------2---2--|2---2---2-------2---2---2------|
E|0---0---0---0---0-------0---0--|0---0---0-------0---0---0------|
  No  one     knows   it          no  one     knows   it
e|------- ------- ------- -------|------- ------- ------- -------|
B|----------------9--------------|----------------9--------------|
G|--------9---------------9------|--------9---------------9------|
D|9------------------------------|9------------------------------|
A|-------------------------------|-------------------------------|
E|-------------------------------|-------------------------------|



                                  F#m
e|0------ 0------ 0---0-- 0------|2------ 2------ 2---2-- 2---2--|
B|0-------0-------0---0---0------|2-------2-------2---2---2---2--|
G|1-------1-------1---1---1------|2-------2-------2---2---2---2--|
D|2-------2-------2---2---2------|4-------4-------4---4---4---4--|
A|2-------2-------2---2---2------|4-------4-------4---4---4---4--|
E|0-------0-------0---0---0------|2-------2-------2---2---2---2--|
  No  one     knows   it,     no
e|------- ------- ------- -------|------- ------- ------- -------|
B|----------------9--------------|----------------10-------------|
G|--------9---------------9------|--------11--------------11-----|
D|9------------------------------|11-----------------------------|
A|-------------------------------|-------------------------------|
E|-------------------------------|-------------------------------|



                                  B
e|2------ 2------ 2---2-- 2------|2------ 2---2-- 2---2-- 2------|
B|2-------2-------2---2---2------|4-------4---4---4---4---4------|
G|2-------2-------2---2---2------|4-------4---4---4---4---4------|
D|4-------4-------4---4---4------|4-------4---4---4---4---4------|
A|4-------4-------4---4---4------|2-------2---2---2---2---2------|
E|2-------2-------2---2---2------|-------------------------------|
  No  one     knows       how     good I      feel
e|------- ------- ------- -------|------- ------- ------- -------|
B|-------------------------------|----------------7--------------|
G|----------------10-------------|--------8---------------8------|
D|--------11--------------11-----|9------------------------------|
A|11-----------------------------|-------------------------------|
E|-------------------------------|-------------------------------|


                                                              X X
                                  E
e|2------ 2------ 2---2-- 2------|0------ 0------ 0------ 0------|
B|4-------4-------4---4---4------|0-------0-------0-------0------|
G|4-------4-------4---4---4------|1-------1-------1-------1------|
D|4-------4-------4---4---4------|2-------2-------2-------2------|
A|2-------2-------2---2---2------|2-------2-------2-------2------|
E|-------------------------------|0-------0-------0-------0------|
  When you    let     it      show
e|------- ------- ------- -------|------- ------- ------- -------|
B|----------------7--------------|----------------9--------------|
G|--------8---------------8------|--------9---------------9------|
D|9------------------------------|9------------------------------|
A|-------------------------------|-------------------------------|
E|-------------------------------|-------------------------------|


  X                   X X X X X X                 X X X X X X X
  Cmaj7                          
e|0------ ------- ------- -------|0------ ------- ------- -------|
B|0------------------------------|0------------------------------|
G|0------------------------------|0------------------------------|
D|2------------------------------|2------------------------------|
A|3------------------------------|3------------------------------|
E|3------------------------------|3------------------------------|
  Keep it     coming,             keep it     long             Ca..
e|7------ ------- ------- -------|7------ ------- ------- -------|
B|8------------------------------|8------------------------------|
G|9------------------------------|9------------------------------|
D10------------------------------10------------------------------|
A|-------------------------------|-------------------------------|
E|8------------------------------|8------------------------------|


              x x x   X X X   X X X               X X X X X X X X
  F#m                             E
e|2------ ------- ------- -------|0------ ------- ------- -------|
B|2------------------------------|0------------------------------|
G|2------------------------------|1------------------------------|
D|4------------------------------|2------------------------------|
A|4------------------------------|2------------------------------|
E|2------------------------------|0------------------------------|
  ress    me      with    your    body        song
e|9------ ------- ------- -------|7------ ------- ------- -------|
B10------------------------------|9------------------------------|
G11------------------------------|9------------------------------|
D11------------------------------|9------------------------------|
A|9------------------------------|7------------------------------|
E|-------------------------------|-------------------------------|



  X                   X X X X X   X           X X X   X X X X X
  Cmaj7 
e|0------ ------- ------- -------|0------ ------- ------- -------|
B|0------------------------------|0------------------------------|
G|0------------------------------|0------------------------------|
D|2------------------------------|2------------------------------|
A|3------------------------------|3------------------------------|
E|3------------------------------|3------------------------------|
  Reach it    higher              with each   sigh
e|7------ ------- ------- -------|7------ ------- ------- -------|
B|8------------------------------|8------------------------------|
G|9------------------------------|9------------------------------|
D10------------------------------10------------------------------|
A|-------------------------------|-------------------------------|
E|8------------------------------|8------------------------------|


  X               x x x x X X X   X
  F#m                             B
e|2------ ------- ------- -------|2------ ------- ------- -------|
B|2------------------------------|4------------------------------|
G|2------------------------------|4------------------------------|
D|4------------------------------|4------------------------------|
A|4------------------------------|2------------------------------|
E|2------------------------------|-------------------------------|
  Knowing     soon           that we  will    fly
  Knowing     soon           that we  will    fly
e|9------ ------- ------- -------|7------ ------- ------- -------|
B10------------------------------|7------------------------------|
G11------------------------------|8------------------------------|
D11------------------------------|9------------------------------|
A|9------------------------------|9------------------------------|
E|-------------------------------|7------------------------------|


      X   X   X   X   X   X   X

e|------- ------- ------- -------|
B|-------------------------------|
G|----4---4---4---4---4---4---4--|
D|----4---4---4---4---4---4---4--|
A|----2---2---2---2---2---2---2--|
E|-------------------------------|                 



  E
e|0------ 0------ 0---0-- 0---0--|0------ 0------ 0---0-- 0---0--|
B|0-------0-------0---0---0---0--|0-------0-------0---0---0---0--|
G|1-------1-------1---1---1---1--|1-------1-------1---1---1---1--|
D|2-------2-------2---2---2---2--|2-------2-------2---2---2---2--|
A|2-------2-------2---2---2---2--|2-------2-------2---2---2---2--|
E|0-------0-------0---0---0---0--|0-------0-------0---0---0---0--|
  No  one     knows   it          no  one     knows   it
  No  one     knows   it          no  one     knows   it
e|------- ------- ------- -------|------- ------- ------- -------|
B|----------------9--------------|----------------9--------------|
G|--------9---------------9------|--------9---------------9------|
D|9------------------------------|9------------------------------|
A|-------------------------------|-------------------------------|
E|-------------------------------|-------------------------------|



                                  F#m
e|0------ 0------ 0---0-- 0------|2------ 2------ 2---2-- 2---2--|
B|0-------0-------0---0---0------|2-------2-------2---2---2---2--|
G|1-------1-------1---1---1------|2-------2-------2---2---2---2--|
D|2-------2-------2---2---2------|4-------4-------4---4---4---4--|
A|2-------2-------2---2---2------|4-------4-------4---4---4---4--|
E|0-------0-------0---0---0------|2-------2-------2---2---2---2--|
  No  one     knows   it,     no
  No  one     knows   it,     no
e|------- ------- ------- -------|------- ------- ------- -------|
B|----------------9--------------|----------------10-------------|
G|--------9---------------9------|--------11--------------11-----|
D|9------------------------------|11-----------------------------|
A|-------------------------------|-------------------------------|
E|-------------------------------|-------------------------------|



                                  B
e|2------ 2------ 2---2-- 2------|2------ 2---2-- 2------ 2---2--|
B|2-------2-------2---2---2------|4-------4---4---4-------4---4--|
G|2-------2-------2---2---2------|4-------4---4---4-------4---4--|
D|4-------4-------4---4---4------|4-------4---4---4-------4---4--|
A|4-------4-------4---4---4------|2-------2---2---2-------2---2--|
E|2-------2-------2---2---2------|-------------------------------|
  No  one     knows       how     good I      feel
  No  one     knows       how     good I      feel
e|------- ------- ------- -------|------- ------- ------- -------|
B|-------------------------------|----------------7--------------|
G|----------------10-------------|--------8---------------8------|
D|--------11--------------11-----|9------------------------------|
A|11-----------------------------|-------------------------------|
E|-------------------------------|-------------------------------|


                                                      X X X X X
                                  E
e|2------ 2---2-- 2------ 2---2--|0------ 0---0-- 0------ 0---0--|
B|4-------4---4---4-------4---4--|0-------0---0---0-------0---0--|
G|4-------4---4---4-------4---4--|1-------1---1---1-------1---1--|
D|4-------4---4---4-------4---4--|2-------2---2---2-------2---2--|
A|2-------2---2---2-------2---2--|2-------2---2---2-------2---2--|
E|-------------------------------|0-------0---0---0-------0---0--|
  When I      see     you     glow
  When I      see     you     glow
e|------- ------- ------- -------|------- ------- ------- -------|
B|----------------7--------------|----------------9--------------|
G|--------8---------------8------|--------9---------------9------|
D|9------------------------------|9------------------------------|
A|-------------------------------|-------------------------------|
E|-------------------------------|-------------------------------|   




e|0---0-- 0------ 0------ 0---0--|0------ 0---0-- 0------ 0---0--|
B|0---0---0-------0-------0---0--|0-------0---0---0-------0---0--|
G|1---1---1-------1-------1---1--|1-------1---1---1-------1---1--|
D|2---2---2-------2-------2---2--|2-------2---2---2-------2---2--|
A|2---2---2-------2-------2---2--|2-------2---2---2-------2---2--|
E|0---0---0-------0-------0---0--|0-------0---0---0-------0---0--|
  No  one     knows   it          no  one     knows   it
  No  one     knows   it          no  one     knows   it
e|------- ------- ------- -------|------- ------- ------- -------|
B|----------------9--------------|----------------9--------------|
G|--------9---------------9------|--------9---------------9------|
D|9------------------------------|9------------------------------|
A|-------------------------------|-------------------------------|
E|-------------------------------|-------------------------------|



                                  F#m
e|0------ 0---0-- 0---0-- 0------|2------ 2------ 2---2-- 2------|
B|0-------0---0---0---0---0------|2-------2-------2---2---2------|
G|1-------1---1---1---1---1------|2-------2-------2---2---2------|
D|2-------2---2---2---2---2------|4-------4-------4---4---4------|
A|2-------2---2---2---2---2------|4-------4-------4---4---4------|
E|0-------0---0---0---0---0------|2-------2-------2---2---2------|
  No  one     knows   it,     no
  No  one     knows   it,     no
e|------- ------- ------- -------|------- ------- ------- -------|
B|----------------9--------------|----------------10-------------|
G|--------9---------------9------|--------11--------------11-----|
D|9------------------------------|11-----------------------------|
A|-------------------------------|-------------------------------|
E|-------------------------------|-------------------------------|



                                  B
e|2---2-- 2---2-- 2------ 2------|2---2-- 2------ 2------ 2---2--|
B|2---2---2---2---2-------2------|4---4---4-------4-------4---4--|
G|2---2---2---2---2-------2------|4---4---4-------4-------4---4--|
D|4---4---4---4---4-------4------|4---4---4-------4-------4---4--|
A|4---4---4---4---4-------4------|2---2---2-------2-------2---2--|
E|2---2---2---2---2-------2------|-------------------------------|
  No  one     knows       how     good I      feel
  No  one     knows       how     good I      feel
e|------- ------- ------- -------|------- ------- ------- -------|
B|-------------------------------|----------------7--------------|
G|----------------10-------------|--------8---------------8------|
D|--------11--------------11-----|9------------------------------|
A|11-----------------------------|-------------------------------|
E|-------------------------------|-------------------------------|


                                                              X X
                                  E
e|2------ 2---2-- 2---2-- 2------|0------ 0---0-- 0------ 0------|
B|4-------4---4---4---4---4------|0-------0---0---0-------0------|
G|4-------4---4---4---4---4------|1-------1---1---1-------1------|
D|4-------4---4---4---4---4------|2-------2---2---2-------2------|
A|2-------2---2---2---2---2------|2-------2---2---2-------2------|
E|-------------------------------|0-------0---0---0-------0------|
  When you    let     it      flow
  When you    let     it      flow
e|------- ------- ------- -------|------- ------- ------- -------|
B|----------------7--------------|----------------9--------------|
G|--------8---------------8------|--------9---------------9------|
D|9------------------------------|9------------------------------|
A|-------------------------------|-------------------------------|
E|-------------------------------|-------------------------------|   




  X                   X X X X X                   X X X X X X X X
  Cmaj7        
e|0------ ------- ------- -------|0------ ------- ------- -------|
B|0------------------------------|0------------------------------|
G|0------------------------------|0------------------------------|
D|2------------------------------|2------------------------------|
A|3------------------------------|3------------------------------|
E|3------------------------------|3------------------------------|
  Keep it     moving,             keep it     bright          and
                                                              and
e|7------ ------- ------- -------|7------ ------- ------- -------|
B|8------------------------------|8------------------------------|
G|9------------------------------|9------------------------------|
D10------------------------------10------------------------------|
A|-------------------------------|-------------------------------|
E|8------------------------------|8------------------------------|


  X           x x x   X X X X X   X               X X X X X X X X
  F#m                             E
e|2------ ------- ------- -------|0------ ------- ------- -------|
B|2------------------------------|0------------------------------|
G|2------------------------------|1------------------------------|
D|4------------------------------|2------------------------------|
A|4------------------------------|2------------------------------|
E|2------------------------------|0------------------------------|
  guide   me      with    your    body        light
  guide   me      with    your    body        light
e|9------ ------- ------- -------|7------ ------- ------- -------|
B10------------------------------|9------------------------------|
G11------------------------------|9------------------------------|
D11------------------------------|9------------------------------|
A|9------------------------------|7------------------------------|
E|-------------------------------|-------------------------------|



  X                   X X X X X   X               X X X X X X X X 
  Cmaj7  
e|0------ ------- ------- -------|0------ ------- ------- -------|
B|0------------------------------|0------------------------------|
G|0------------------------------|0------------------------------|
D|2------------------------------|2------------------------------|
A|3------------------------------|3------------------------------|
E|3------------------------------|3------------------------------|
 Come  in     closer              within      sight
e|7------ ------- ------- -------|7------ ------- ------- -------|
B|8------------------------------|8------------------------------|
G|9------------------------------|9------------------------------|
D10------------------------------10------------------------------|
A|-------------------------------|-------------------------------|
E|8------------------------------|8------------------------------|


  X           x x x   X X X X X  
  F#m                             B
e|2------ ------- ------- -------|2------ ------- ------- -------|
B|2------------------------------|4------------------------------|
G|2------------------------------|4------------------------------|
D|4------------------------------|4------------------------------|
A|4------------------------------|2------------------------------|
E|2------------------------------|-------------------------------|
  Knowing     soon           that we  will    fly
  Knowing     soon           that we  will    fly
e|9------ ------- ------- -------|7------ ------- ------- -------|
B10------------------------------|7------------------------------|
G11------------------------------|8------------------------------|
D11------------------------------|9------------------------------|
A|9------------------------------|9------------------------------|
E|-------------------------------|7------------------------------|


      X   X   X   X   X   X   X

e|------- ------- ------- -------|
B|-------------------------------|
G|----4---4---4---4---4---4---4--|
D|----4---4---4---4---4---4---4--|
A|----2---2---2---2---2---2---2--|
E|-------------------------------| 


                
  E
e|0------ 0------ 0---0-- 0---0--|0------ 0------ 0---0-- 0---0--|
B|0-------0-------0---0---0---0--|0-------0-------0---0---0---0--|
G|1-------1-------1---1---1---1--|1-------1-------1---1---1---1--|
D|2-------2-------2---2---2---2--|2-------2-------2---2---2---2--|
A|2-------2-------2---2---2---2--|2-------2-------2---2---2---2--|
E|0-------0-------0---0---0---0--|0-------0-------0---0---0---0--|
  (Japanese cooing throughout solo...)
e|------- ------- ------- -------|------- ------- ------- -------|
B|-------------------------------|-------------------------------|
G11B13-11-----9--~---------------|8B9-8--------------------------|
D|-------------------------------|------------9--~---------------|
A|-------------------------------|-------------------------------|
E|-------------------------------|-------------------------------|

e|------- ------- ------- -------|------- ------- ------- -------|
B10B12R10-----9--~---------------|7B9-7-------9--~---------------|
G|-------------------------------|-------------------------------|
D|-------------------------------|-------------------------------|
A|-------------------------------|-------------------------------|
E|-------------------------------|-------------------------------|



                                  F#m
e|0------ 0------ 0---0-- 0---0--|2------ 2------ 2---2-- 2---2--|
B|0-------0-------0---0---0---0--|2-------2-------2---2---2---2--|
G|1-------1-------1---1---1---1--|2-------2-------2---2---2---2--|
D|2-------2-------2---2---2---2--|4-------4-------4---4---4---4--|
A|2-------2-------2---2---2---2--|4-------4-------4---4---4---4--|
E|0-------0-------0---0---0---0--|2-------2-------2---2---2---2--|

e|------- ------- ------- -------|------- ------- ------- -------|
B|-------------------------------|-------------------------------|
G|------------9-------11B13------|11--~--------------------------|
D|9---11-------------------------|-------------------------------|
A|-------------------------------|-------------------------------|
E|-------------------------------|-------------------------------|

e|------- ------- ------- -------|------- ------- ------- -------|
B|------------9-------10B12------|10--~--------------------------|
G|9---11-------------------------|-------------------------------|
D|-------------------------------|-------------------------------|
A|-------------------------------|-------------------------------|
E|-------------------------------|-------------------------------|



                                  B
e|2------ 2------ 2---2-- 2---2--|2------ 2------ 2---2-- 2---2--|
B|2-------2-------2---2---2---2--|4-------4-------4---4---4---4--|
G|2-------2-------2---2---2---2--|4-------4-------4---4---4---4--|
D|4-------4-------4---4---4---4--|4-------4-------4---4---4---4--|
A|4-------4-------4---4---4---4--|2-------2-------2---2---2---2--|
E|2-------2-------2---2---2---2--|-------------------------------|

e|------- ------- ------- -------|------- ------- ------- -------|
B|-------------------------------|-------------------------------|
G|13B1413-----11--~--------------|9B11-9------8--~---------------|
D|-------------------------------|-------------------------------|
A|-------------------------------|-------------------------------|
E|-------------------------------|-------------------------------|

e|------- ------- ------- -------|------- ------- ------- -------|
B12B14-12-----10--~--------------|9B10-9-------------------------|
G|-------------------------------|------------11--~--------------|
D|-------------------------------|-------------------------------|
A|-------------------------------|-------------------------------|
E|-------------------------------|-------------------------------|




                                  E
e|2------ 2------ 2---2-- 2------|0------ 0------ 0---0-- 0---0--|
B|4-------4-------4---4---4------|0-------0-------0---0---0---0--|
G|4-------4-------4---4---4------|1-------1-------1---1---1---1--|
D|4-------4-------4---4---4------|2-------2-------2---2---2---2--|
A|2-------2-------2---2---2------|2-------2-------2---2---2---2--|
E|-------------------------------|0-------0-------0---0---0---0--|

e|------- ------- ------- -------|------- ------- ------- -------|
B|--------------------12B14------12--~---------------------------|
G|8---9-------11-----------------|-------------------------------|
D|-------------------------------|-------------------------------|
A|-------------------------------|-------------------------------|
E|-------------------------------|-------------------------------|

e|------- ------- ----12B14------12--~--- ------- ------- -------|
B|----9-------10-----------------|-------------------------------|
G|11-----------------------------|-------------------------------|
D|-------------------------------|-------------------------------|
A|-------------------------------|-------------------------------|
E|-------------------------------|-------------------------------|



                          
e|0------ 0------ 0---0-- 0---0--|0------ 0------ 0---0-- 0---0--|
B|0-------0-------0---0---0---0--|0-------0-------0---0---0---0--|
G|1-------1-------1---1---1---1--|1-------1-------1---1---1---1--|
D|2-------2-------2---2---2---2--|2-------2-------2---2---2---2--|
A|2-------2-------2---2---2---2--|2-------2-------2---2---2---2--|
E|0-------0-------0---0---0---0--|0-------0-------0---0---0---0--|

e|------- ------- ------- -------|------- ------- ------- -------|
B|12B14---12---------------------|-------------------------------|
G|------------13--~--------------|13B14---13---------------------|
D|-------------------------------|------------14--~--------------|
A|-------------------------------|-------------------------------|
E|-------------------------------|-------------------------------|

e|12B14-- 12----- ------- -------|------- ------- ------- -------|
B|------------12--~--------------|12B14---12---------------------|
G|-------------------------------|------------13--~--------------|
D|-------------------------------|-------------------------------|
A|-------------------------------|-------------------------------|
E|-------------------------------|-------------------------------|



                                  F#m
e|0------ 0------ 0---0-- 0---0--|2------ 2------ 2---2-- 2---2--|
B|0-------0-------0---0---0---0--|2-------2-------2---2---2---2--|
G|1-------1-------1---1---1---1--|2-------2-------2---2---2---2--|
D|2-------2-------2---2---2---2--|4-------4-------4---4---4---4--|
A|2-------2-------2---2---2---2--|4-------4-------4---4---4---4--|
E|0-------0-------0---0---0---0--|2-------2-------2---2---2---2--|

e|------- ------- ------- -------|------- ------- ------- -------|
B|-------------------------------|-------------------------------|
G|------------9-------11B13------|11--~--------------------------|
D|9---11-------------------------|-------------------------------|
A|-------------------------------|-------------------------------|
E|-------------------------------|-------------------------------|

e|------- ------- ------- -------|------- ------- ------- -------|
B|------------9-------10B12------|10--~--------------------------|
G|9---11-------------------------|-------------------------------|
D|-------------------------------|-------------------------------|
A|-------------------------------|-------------------------------|
E|-------------------------------|-------------------------------|




                                  B
e|2------ 2------ 2---2-- 2---2--|2------ 2------ 2---2-- 2---2--|
B|2-------2-------2---2---2---2--|4-------4-------4---4---4---4--|
G|2-------2-------2---2---2---2--|4-------4-------4---4---4---4--|
D|4-------4-------4---4---4---4--|4-------4-------4---4---4---4--|
A|4-------4-------4---4---4---4--|2-------2-------2---2---2---2--|
E|2-------2-------2---2---2---2--|-------------------------------|

e|------- ------- ------- -------|------- ------- ------- -------|
B|9B10----9----------------------|9B10---------------------------|
G|------------11--~--------------|--------11--11--~--------------|
D|-------------------------------|-------------------------------|
A|-------------------------------|-------------------------------|
E|-------------------------------|-------------------------------|

e|------- ------- ------- -------|------- ----11- ~------ -------|
B|12B14---12--10--~--------------|12B14---12---------------------|
G|-------------------------------|-------------------------------|
D|-------------------------------|-------------------------------|
A|-------------------------------|-------------------------------|
E|-------------------------------|-------------------------------|


                                                      X X X X X X
                                  E
e|2------ 2------ 2---2-- 2------|0------ 0------ 0---0-- 0---0--|
B|4-------4-------4---4---4------|0-------0-------0---0---0---0--|
G|4-------4-------4---4---4------|1-------1-------1---1---1---1--|
D|4-------4-------4---4---4------|2-------2-------2---2---2---2--|
A|2-------2-------2---2---2------|2-------2-------2---2---2---2--|
E|-------------------------------|0-------0-------0---0---0---0--|

e|------- ------- ------- -------|------- ------- ------- -------|
B16B17-16-----14------16-B17-----|17--~--------------------------|
G|-------------------------------|-------------------------------|
D|-------------------------------|-------------------------------|
A|-------------------------------|-------------------------------|
E|-------------------------------|-------------------------------|

e16B17-16 ----14- ----16-B17 ----|16--~-- ------- ------- -------|
B|-------------------------------|-------------------------------|
G|-------------------------------|-------------------------------|
D|-------------------------------|-------------------------------|
A|-------------------------------|-------------------------------|
E|-------------------------------|-------------------------------|

                                                       


  X               X X X X X X X                       X X X X X X 
  Cmaj7
e|0------ ------- ------- -------|0------ ------- ------- -------|
B|0------------------------------|0------------------------------|
G|0------------------------------|0------------------------------|
D|2------------------------------|2------------------------------|
A|3------------------------------|3------------------------------|
E|3------------------------------|3------------------------------|
  Keep on     feeling,            keep it     whole            and
 (Aaaaaaaaaaaaaaaaaaaaaaaaaaaaaaaaaaaaaaaaaaaaaaaaaaaaaaaaaaaaaaa 
e|7------ ------- ------- -------|7------ ------- ------- -------|
B|8------------------------------|8------------------------------|
G|9------------------------------|9------------------------------|
D10------------------------------10------------------------------|
A|-------------------------------|-------------------------------|
E|8------------------------------|8------------------------------|


  X           x x x   X X X X X   X               X X X X X X X 
  F#m                             E
e|2------ ------- ------- -------|0------ ------- ------- -------|
B|2------------------------------|0------------------------------|
G|2------------------------------|1------------------------------|
D|4------------------------------|2------------------------------|
A|4------------------------------|2------------------------------|
E|2------------------------------|0------------------------------|
  lead    me      with    your    body        soul
  aaaaaaaaaaaaaaaaaaaaaaaaaaaaaaaaaaaaaaaaaaaaahhhhhhhh)
e|9------ ------- ------- -------|7------ ------- ------- -------|
B10------------------------------|9------------------------------|
G11------------------------------|9------------------------------|
D11------------------------------|9------------------------------|
A|9------------------------------|7------------------------------|
E|-------------------------------|-------------------------------|



  X                   X X X X X   X           X X X   X X X X X
  Cmaj7 
e|0------ ------- ------- -------|0------ ------- ------- -------|
B|0------------------------------|0------------------------------|
G|0------------------------------|0------------------------------|
D|2------------------------------|2------------------------------|
A|3------------------------------|3------------------------------|
E|3------------------------------|3------------------------------|
  Take me     higher              with each   sigh
 (Aaaaaaaaaaaaaaaaaaaaaaaaaaaaaaaaaaaaaaaaaaaaaaaaaaaaaaaaaaaaaaa 
e|7------ ------- ------- -------|7------ ------- ------- -------|
B|8------------------------------|8------------------------------|
G|9------------------------------|9------------------------------|
D10------------------------------10------------------------------|
A|-------------------------------|-------------------------------|
E|8------------------------------|8------------------------------|


  X               x x x x X X X X X
  F#m                             B
e|2------ ------- ------- -------|2------ ------- ------- -------|
B|2------------------------------|4------------------------------|
G|2------------------------------|4------------------------------|
D|4------------------------------|4------------------------------|
A|4------------------------------|2------------------------------|
E|2------------------------------|-------------------------------|
  Knowing     you             can make me     fly
  aaaaaaaaaaaaaaaaaaaaaaaaaaaaaaaaaaaaaaaaaaaaaaaaaaaaaaahhhhhhhh)
e|9------ ------- ------- -------|7------ ------- ------- -------|
B10------------------------------|7------------------------------|
G11------------------------------|8------------------------------|
D11------------------------------|9------------------------------|
A|9------------------------------|9------------------------------|
E|-------------------------------|7------------------------------|


      X   X   X   X   X   X   X

e|------- ------- ------- -------|
B|-------------------------------|
G|----4---4---4---4---4---4---4--|
D|----4---4---4---4---4---4---4--|
A|----2---2---2---2---2---2---2--|
E|-------------------------------|                 



  E
e|0---0-- 0------ 0------ 0------|0------ 0------ 0------ 0---0--|
B|0---0---0-------0-------0------|0-------0-------0-------0---0--|
G|1---1---1-------1-------1------|1-------1-------1-------1---1--|
D|2---2---2-------2-------2------|2-------2-------2-------2---2--|
A|2---2---2-------2-------2------|2-------2-------2-------2---2--|
E|0---0---0-------0-------0------|0-------0-------0-------0---0--|
  No  one     knows   it          no  one     knows   it
  No  one     knows   it          no  one     knows   it
e|------- ------- ------- -------|------- ------- ------- -------|
B|----------------9--------------|----------------9--------------|
G|--------9---------------9------|--------9---------------9------|
D|9------------------------------|9------------------------------|
A|-------------------------------|-------------------------------|
E|-------------------------------|-------------------------------|



                                  F#m
e|0------ 0------ 0---0-- 0------|2---2-- 2------ 2------ 2---2--|
B|0-------0-------0---0---0------|2---2---2-------2-------2---2--|
G|1-------1-------1---1---1------|2---2---2-------2-------2---2--|
D|2-------2-------2---2---2------|4---4---4-------4-------4---4--|
A|2-------2-------2---2---2------|4---4---4-------4-------4---4--|
E|0-------0-------0---0---0------|2---2---2-------2-------2---2--|
  No  one     knows   it,     no
  No  one     knows   it,     no
e|------- ------- ------- -------|------- ------- ------- -------|
B|----------------9--------------|----------------10-------------|
G|--------9---------------9------|--------11--------------11-----|
D|9------------------------------|11-----------------------------|
A|-------------------------------|-------------------------------|
E|-------------------------------|-------------------------------|



                                  B
e|2------ 2---2-- 2---2-- 2------|2---2-- 2---2-- 2------ 2------|
B|2-------2---2---2---2---2------|4---4---4---4---4-------4------|
G|2-------2---2---2---2---2------|4---4---4---4---4-------4------|
D|4-------4---4---4---4---4------|4---4---4---4---4-------4------|
A|4-------4---4---4---4---4------|2---2---2---2---2-------2------|
E|2-------2---2---2---2---2------|-------------------------------|
  No  one     knows       how     good I      feel
  No  one     knows       how     good I      feel
e|------- ------- ------- -------|------- ------- ------- -------|
B|-------------------------------|----------------7--------------|
G|----------------10-------------|--------8---------------8------|
D|--------11--------------11-----|9------------------------------|
A|11-----------------------------|-------------------------------|
E|-------------------------------|-------------------------------|


                                                     

e|2------ 2------ 2---2-- 2------|
B|4-------4-------4---4---4------|
G|4-------4-------4---4---4------|
D|4-------4-------4---4---4------|
A|2-------2-------2---2---2------|
E|-------------------------------|
  When I      see     you     glow.
  When I      see     you     glow.
e|------- ------- ------- -------|
B|----------------7--------------|
G|--------8---------------8------|
D|9------------------------------|
A|-------------------------------|
E|-------------------------------|   



  Cmaj7                           G               A
e|0------ ------- ------- -------|3------ ------- 0------ -------|
B|0------------------------------|0---------------2--------------|
G|0------------------------------|0---------------2--------------|
D|2------------------------------|0---------------2--------------|
A|3------------------------------|2---------------0--------------|
E|3------------------------------|3------------------------------|
  *
e|7------- ------- ------- ------|7------ ------- 9------ -------|
B|8------------------------------|8--------------10--------------|
G|9------------------------------|7---------------9--------------|
D10------------------------------|5---------------7--------------|
A|-------------------------------|-------------------------------|
E|8------------------------------|-------------------------------|


 (.
  E
e|0------ ------- ------- -------|------- ------- ------- -------|
B|0------------------------------|-------------------------------|
G|1------------------------------|-------------------------------|
D|2------------------------------|-------------------------------|
A|2------------------------------|-------------------------------|
E|0------------------------------|-------------------------------|

e|7------ ------- ------- -------|------- ------- ------- -------|
B|9------------------------------|-------------------------------|
G|9------------------------------|-------------------------------|
D|9------------------------------|-------------------------------|
A|7------------------------------|-------------------------------|
E|-------------------------------|-------------------------------|










        B  Bend
        R  Release
        /  Slide up
        \  Slide down
        H  Hammer-on
        P  Pull-off
        ~  Vibrato
        +  Harmonic
        x  Mute note
        .  Play note like a dot in standard notation
        ^  Ties two notes together
        (. Pause
        *  Strum upwards





Comments


Popular Badfinger tabs & chords
No Matter What 2 Bass Tabs
Baby Blue Chords
Carry On Till Tomorrow 2 Chords
I'll Be The One Chords
Baby Blue 2 Tabs
Day After Day 1 Tabs
Without You Tabs
Come And Get It Ukulele
Ill Be The One Ukulele
Your So Fine Ukulele


Song lyrics



↑ Back to top | Tablatures and chords are parodies/interpretations of the original songs. You may use it for private study, scholarship, research or language learning purposes only
© 2014 AZChords.com Contact us | Privacy policy | DMCA | Add/correct tabs | Request tabs | Top 50 tabs