>
 >
Maybe Tomorrow

Maybe Tomorrow Guitar Tabs

Badfinger - Maybe Tomorrow chords, tabs, tablatures, lyrics

Guitar lessons | Add/correct | Request | Top 50 tabs Artists:  A B C D E F G H I J K L M N O P Q R S T U V W X Y Z 0-9

Maybe Tomorrow Guitar Tabs – Badfinger

CD, Sheet music, Poster

Do you like Maybe Tomorrow? Share with your friends now
ChordsTabs
------------------------------------------------------------------

   THE IVEYS - MAYBE TOMORROW  (T. Evans)  Released as a single by 
               APPLE RECORDS with AND HER DADDY'S A MILLIONAIRE as 
               the B side on 15th November 1968. 

------------------------------------------------------------------







     THE IVEYS auditioned at APPLE RECORDS in 1967. MAYBE TOMORROW
     was released as a single and also as an album in Europe. The  
     album included the songs from the movie by Peter Sellers and 
     Ringo Starr "THE MAGIC CHRISTIAN", but the album was withdrawn 
     in England when  Allen Klein (new manager for THE BEATLES on 
     Lennon's initiative) fired APPLE CORPS head Ron Kass who, like
     Mal Evans, was very keen on the group. They changed shortly 
     after the name of the group and settled on BADFINGER, which 
     they took from the working title of WITH A LITTLE HELP FROM MY 
     FRIENDS, then called "BAD FINGER BOOGIE".






Listen to a lonely sound. See the grey and sadness all around
See the people go their way. Care not of me and love I've lost today

Maybe tomorrow, I will love again
I'll never know until I've looked into her eyes
Maybe tomorrow, I will love again
I'll never know until I've seen her once or twice

And so I'm living for a dream. Each lonely day spent looking for the sunshine
I'll make believe that I don't care. I'll tell my friends I love my life, I'm happy

Maybe tomorrow, I will love again
I'll never know until I've looked into her eyes
Maybe tomorrow, I will love again
I'll never know until I've seen her once or twice

Wherever, whoever you may be. Let the light of your love
Shine through the window of my heart
Then when you've coloured all my thoughts bright
Don't let me ever ever think of night, no-oo yeah!

Maybe tomorrow you will love again
I'll never know until I've looked into her eyes
Maybe tomorrow you will love again
I'll never know until I've seen her once or twice
Maybe tomorrow you will love again







                                  A
e|------- ------- ------- -------|5------ 5------ 5------ 5------|
B|-------------------------------|5-------5-------5-------5------|
G|-------------------------------|6-------6-------6-------6------|
D|-------------------------------|-------------------------------|
A|-------------------------------|-------------------------------|
E|-------------------------------|----------------------------0--|




                  Dbm             F#m
e|5------ 5------ 4------ 4------|2------ 2------ 2------ 2------|
B|5-------5-------5-------5------|2-------2-------2-------2------|
G|6-------6-------6-------6------|2-------2-------2-------2------|
D|-------------------------------|4-------4-------4-------4------|
A|0------------------------------|------------------------4------|
E|------------0---4-----------0--|2---------------2--------------|
          Listen  to a lonely     sound.



  Bm              G               E
e|2------ 2------ 3------ 3------|4------ 4------ 4------ 4------|
B|3-------3-------3-------3------|5-------5-------5-------5------|
G|4-------4-------4-------4------|4-------4-------4-------4------|
D|4-------4-------5--------------|-------------------------------|
A|2------------------------------|-------------------------------|
E|------------2---3-----------2--|0-------------------0---4---0--|
         See the grey and sadness all     around



  A               Dbm             F#m
e|------- 9------ ------- 9------|------- 9------ 9------ -------|
B|----10------10------9-------9--|----10------10------10------10-|
G|9---------------9--------------|11----------------------11-----|
D|-------------------------------|-------------------------------|
A|0------------------------------|9---------------9--------------|
E|----------------9--------------|-------------------------------|
          See the people  go their way.



  Bm              G               E               Esus4   E
e|------- 7------ ------- 7------|------- 7------ ----7-- ----7--|
B|----7-------7-------8-------8--|----9-------9---10------9------|
G|7---------------7--------------|9------------------------------|
D|----------------5--------------|-------------------------------|
A|-------------------------------|7---------------7-------7------|
E|7------------------------------|-------------------------------|
      Care not of me and love I've lost   today





e|------- ------- ------- -------|
B|0-------0-------0-------0------|
G|1-------1-------1-------1------|
D|2-------2-------2-------0---2--|
A|------------0---2---4----------|
E|0---2---4----------------------|




  A               Amaj7           F#m
e|------- ------- ------- -------|------- ------- ------- -------|
B|2-------2-------2-------2------|2-------2-------2-------2------|
G|2-------2-------2-------2------|2-------2-------2-------2------|
D|2-------2-------2-------2------|4-------4-------4-------4------|
A|0-----------0------------------|------------4-------4-------4--|
E|----------------4-----------4--|2-----------------------5------|
      Maybe   tomorrow,   I will  love again



  Bm              G               E
e|2------ 2------ 3------ 3------|------- ------- ------- -------|
B|3-------3-------3-------3------|0-------0-------0-------0------|
G|4-------4-------4-------4------|1-------1-------1-------1------|
D|4-------4-------5-------5------|2-------2-------2-------0---2--|
A|2-----------2------------------|------------0---2---4----------|
E|----------------3-------3------|0---2---4----------------------|
     I'll never know until  I've  looked into her eyes



  A               Amaj7           F#m
e|------- ------- ------- -------|------- ------- ------- -------|
B|2-------2-------2-------2------|2-------2-------2-------2------|
G|2-------2-------2-------2------|2-------2-------2-------2------|
D|2-------2-------2-------2------|4-------4-------4-------4------|
A|0-----------0------------------|--------------4-----4-------4--|
E|----------------4-----------4--|2-----------------------2------|
      Maybe   tomorrow,   I will  love again




  Bm              G               E Eadd9 E   E7
e|2------ 2------ 3------ 3------|4---2-- -------|
B|3-------3-------3-------3------|0-------0---3--|
G|4-------4-------4-------4------|1-------1------|
D|4-------4-------5-------5------|2-------2------|
A|2-----------2------------------|---------------|
E|----------------3--------------|0--------------|
     I'll never know  until  I've seen her once 
                                             or twice


  A
e|------- ------- ------- -------|
B|2------------------------------|
G|2-H-4-P-2----------------------|
D|2-----------2------------------|
A|0---------------4--------------|
E|-------------------------------|
   



                  Dbm             F#m
e|5------ 5------ 4------ 4------|2------ 2------ 2------ 2------|
B|5-------5-------5-------5------|2-------2-------2-------2------|
G|6-------6-------6-------6------|2-------2-------2-------2------|
D|-------------------------------|4-------4-------4-------4------|
A|0------------------------------|-------------------------------|
E|----------------4--------------|2------------------------------|
      And so  I'm living  for a dream.     


                                      x x x   X X X   X X X   x
  Bm              G               E
e|2------ 2------ 3------ 3------|4------ 4------ 4------ 4------|
B|3-------3-------3-------3------|5-------5-------5-------5------|
G|4-------4-------4-------4------|4-------4-------4-------4------|
D|4-------4-------5--------------|-------------------------------|
A|2------------------------------|-------------------------------|
E|----------------3--------------|0-------------------0---0---0--|
     Each lonely day spent looking for    the     sunshine     



  A               Dbm             F#m
e|------- 9------ ------- 9------|------- 9------ 9------ -------|
B|----10------10------9-------9--|----10------10------10------10-|
G|9---------------9--------------|11----------------------11-----|
D|-------------------------------|-------------------------------|
A|0------------------------------|9---------------9--------------|
E|----------------9--------------|-------------------------------|
    I'll make believe that I don't care.       



  Bm              G               E               Esus4   E
e|------- 7------ ------- 7------|------- 7------ ----7-- ----7--|
B|----7-------7-------8-------8--|----9-------9---10------9------|
G|7---------------7--------------|9------------------------------|
D|----------------5--------------|-------------------------------|
A|-------------------------------|7---------------7-------7------|
E|7------------------------------|-------------------------------|
    I'll tell my friends I love my life,  I'm     happy



                x xxxxxxx XXXX

e|------- ------- ------- -------|
B|0-------0-------0-------0------|
G|1-------1-------1-------1------|
D|2-------2-------2-------0---2--|
A|------------0---2---4----------|
E|0---2---4----------------------|




  A               Amaj7           F#m
e|------- ------- ------- -------|------- ------- ------- -------|
B|2-------2-------2-------2------|2-------2-------2-------2------|
G|2-------2-------2-------2------|2-------2-------2-------2------|
D|2-------2-------2-------2------|4-------4-------4-------4------|
A|0-----------0------------------|------------4-------4-------4--|
E|----------------4-----------4--|2-----------------------5------|
      Maybe   tomorrow,   I will  love again



  Bm              G               E
e|2------ 2------ 3------ 3------|------- ------- ------- -------|
B|3-------3-------3-------3------|0-------0-------0-------0------|
G|4-------4-------4-------4------|1-------1-------1-------1------|
D|4-------4-------5-------5------|2-------2-------2-------0---2--|
A|2-----------2------------------|------------0---2---4----------|
E|----------------3---3-------3--|0---2---4----------------------|
     I'll never know until  I've  looked into her eyes



  A               Amaj7           F#m
e|------- ------- ------- -------|------- ------- ------- -------|
B|2-------2-------2-------2------|2-------2-------2-------2------|
G|2-------2-------2-------2------|2-------2-------2-------2------|
D|2-------2-------2-------2------|4-------4-------4-------4------|
A|0-----------0------------------|--------------4-----4-------4--|
E|----------------4-----------4--|2-----------------------2------|
      Maybe   tomorrow,   I will  love again




  Bm              G               E Eadd9 E   E7
e|2------ 2------ 3------ 3------|4---2-- 0------|
B|3-------3-------3-------3------|0-------0---3--|
G|4-------4-------4-------4------|1-------1------|
D|4-------4-------5-------5------|2-------2------|
A|2------------------------------|---------------|
E|----------------3--------------|0---0---0------|
     I'll never know  until  I've seen her once 
                                             or twice


  A
e|------- ------- ------- -------|
B|2-P-0-----------2--------------|
G|2-------2-P-1---2-------2------|
D|2-------2-------4-P-2---0------|
A|0-------0-------0-------0-H-4--|
E|-------------------------------|
    


          x               x               x               x
  A               Dbm             F#m
e|------- ------- ------- -------|------- ------- ------- -------|
B|--------2---3---5-------5------|2-------2-------2-------2------|
G|2-------2-------6---7---6---4--|2-------2-------2-------2------|
D|2-------2-------6-------6------|4-------4-------4-------4------|
A|2-P-0---0-------4-------4------|--------------------4-------4--|
E|-------------------------------|2---------------2--------------|
                                Wherever, whoever you may be.


          x               x           x x x   X X X   X X X   x
  Bm              G               E       Eadd9   E       E7
e|2---2-- ------- 3---3-- -------|------- 2------ 0------ -------|
B|3---3-----------3---3----------|0---------------0-------3------|
G|4---4-----------4---4----------|1---------------1--------------|
D|4---4-----------5---5----------|2---------------2--------------|
A|2---2--------------------------|2------------------------------|
E|----------------3---3----------|0---------------0--------------|
                                    Shine through the window of my 



  A               Dbm             F#m
e|------- ------- ------- -------|------- ------- ------- -------|
B|----2---2---3---5-------5------|2-------2-------2-------2------|
G|2-------2-------6---7---6---4--|2-------2-------2-------2------|
D|2-------2-------6-------6------|4-------4-------4-------4------|
A|0-----------0---4-------4------|--------------4-----4-------4--|
E|-------------------------------|2-----------------------2------|
  heart                           Then 
                                    when 
                                     you've coloured 
                                             all my thoughts bright
  Bm              G               E
e|2------ 2------ 3------ 3------|4------ 4------ 4------ 4------|
B|3-------3-------3-------3------|5-------5-------5-------5------|
G|4-------4-------4-------4------|4-------4-------4-------4------|
D|4-------4-------5--------------|-------------------------------|
A|2-----------2------------------|-------------------------------|
E|----------------3---3---3---3--|0---0---0-------0---0----------|
           Don't let 
                 me ever            ever think of night, 


                x xxxxxxx XXXX

e|------- ------- ------- -------|
B|0-------0-------0-------0------|
G|1-------1-------1-------1------|
D|2-------2-------2-------0---2--|
A|------------0---2---4----------|
E|0---2---4----------------------|
      noooooooooooooooooo yeah!



  A               Amaj7           F#m
e|------- ------- ------- -------|------- ------- ------- -------|
B|2-------2-------2-------2------|2-------2-------2-------2------|
G|2-------2-------2-------2------|2-------2-------2-------2------|
D|2-------2-------2-------2------|4-------4-------4-------4------|
A|0-----------0------------------|--------------4-----4-------4--|
E|----------------4-----------4--|2------------------------------|
      Maybe   tomorrow,   you will love again



  Bm              G               E
e|2------ 2------ 3------ 3------|------- ------- ------- -------|
B|3-------3-------3-------3------|0-------0-------0-------0------|
G|4-------4-------4-------4------|1-------1-------1-------1------|
D|4-------4-------5-------5------|2-------2-------2-------0---2--|
A|2-------2----------------------|------------0---2---4----------|
E|----------------3---3---3------|0---2---4----------------------|
     I'll never know until  I've  looked into her eyes



  A               Amaj7           F#m
e|------- ------- ------- -------|------- ------- ------- -------|
B|2-------2-------2-------2------|2-------2-------2-------2------|
G|2-------2-------2-------2------|2-------2-------2-------2------|
D|2-------2-------2-------2------|4-------4-------4-------4------|
A|0-----------0------------------|--------------4-----4-------4--|
E|----------------4-------4------|2------------------------------|
      Maybe   tomorrow,   you will love again



                                                    x x   x
  Bm              G               E               A5
e|2------ 2------ 3------ 3------|------- ------- ------- -------|
B|3-------3-------3-------3------|0-------0----------------------|
G|4-------4-------4-------4------|1-------1---------2-2---2------|
D|4-------4-------5-------5------|2-------2-------2-2-2---2------|
A|2------------------------------|----------------0-------0------|
E|----------------3---3---3------|0---0---0----------------------|
     I'll never know  until  I've seen her once 
                                             or twice


  A               Amaj7           F#m
e|------- ------- ------- -------|------- ------- ------- -------|
B|2-------2-------2-------2------|2-------2-------2-------2------|
G|2-------2-------2-------2------|2-------2-------2-------2------|
D|2-------2-------2-------2------|4-------4-------4-------4------|
A|0-----------0------------------|-------------------------------|
E|----------------4-----------4--|2---------------2---2-------2--|
      Maybe   tomorrow,   you will love again
                                      Maybe   tomorrow  I     will


  D5      D       D5      D       A
e|------- 2------ 5------ 10-----|9------ ------- ------- -------|
B|3-------3-------3-------10-----10------------------------------|
G|2-------2-------2-------11-----|9------------------------------|
D|0-------0-------0-------0------|-------------------------------|
A|-------------------------------|0------------------------------|
E|-------------------------------|-------------------------------|
  love
  love







        B  Bend
        R  Release
        /  Slide up
        \  Slide down
        H  Hammer-on
        P  Pull-off
        ~  Vibrato
        +  Harmonic
        x  Mute note
        .  Play note like a dot in standard notation
        ^  Ties two notes together
        (. Pause





Comments


Popular Badfinger tabs & chords
No Matter What 3 Bass Tabs
Baby Blue Chords
Come And Get It Chords
Love Time Chords
Take It All Chords
Baby Blue Tabs
Come And Get It Tabs
Blodwyn Ukulele
The Name Of The Game Ukulele
Walk Out In The Rain Ukulele


Song lyrics



↑ Back to top | Tablatures and chords are parodies/interpretations of the original songs. You may use it for private study, scholarship, research or language learning purposes only
© 2014 AZChords.com Contact us | Privacy policy | DMCA | Add/correct tabs | Request tabs | Top 50 tabs