>
 >
Dear Angie

Dear Angie Guitar Tabs

Badfinger - Dear Angie chords, tabs, tablatures, lyrics

Guitar lessons | Add/correct | Request | Top 50 tabs Artists:  A B C D E F G H I J K L M N O P Q R S T U V W X Y Z 0-9

Dear Angie Guitar Tabs – Badfinger

CD, Sheet music, Poster

Do you like Dear Angie? Share with your friends now
Tabs
---------------------------------------------------------------------

  THE IVEYS - DEAR ANGIE (R. GRIFFITHS) Released as a single by APPLE
 (BADFINGER)  RECORDS on 18th July 1969 with NO ESCAPING YOUR LOVE as
              the B side.

---------------------------------------------------------------------




Dear Angie, just these lines to confirm something you may know

Dear Angie, please excuse the writing, it's my nerves, you know


When you caught your train today

You took my heart and soul away

I can't wait 'til Friday night

To see you, touch you, hold you tight


Dear Angie, how's your folks and relatives?

I hope they're well

Dear Angie, I'm spending my vacation at that same hotel


I've known you now for one whole year

There's something I've not told you, dear

Turned a blind eye for too long

This letter proves that I've been wrong


Ba ba da, oooooooh

Ba ba da, oooooooh


I've known you now for one whole year

There's something I've not told you, dear

Turned a blind eye for too long

This letter proves that I've been wrong


Dear Angie, I've beat about the bush, it's time I spoke my mind

Dear Angie, It's been a long time coming, guess I've been unkind


Dear Angie, the writing's on the wall

Dear Angie, I love you, you're my all

Guess that's all.


                                                              Dear


  A                               Dbm             A7
e|0------ 0------ 0------ 0------|4------ 4------ 0------ 0------|
B|2-------2-------2-------2------|5-------5-------2-------2------|
G|2-------2-------2-------2------|6-------6-------0-------0------|
D|2-------2-------2-------2------|6-------6-------2-------2------|
A|0-------0-------0-------0------|4-------4-------0-------0------|
E|-------------------------------|-------------------------------|
  Angie                           just these
                                          lines
                                              to confirm  something
e|------- 5------ ------- 5------|------- 4------ ------- 5------|
B|--------5---------------5------|--------5---------------5------|
G|--------6---------------6------|--------6---------------6------|
D|--------7---------------7------|--------6---------------5------|
A|--------7---------------7------|--------4---------------7------|
E|--------5---------------5------|------------------------5------|


  F#m             F#mmaj7         F#m7            B9
e|2------ 2------ 2------ 2------|2------ 2------ 2------ 2------|
B|2-------2-------2-------2------|2-------2-------2-------2------|
G|2-------2-------2-------2------|2-------2-------2-------2------|
D|4-------4-------3-------3------|2-------2-------1-------1------|
A|4-------4-------4-------4------|4-------4-------2-------2------|
E|2-------2-------2-------2------|2-------2----------------------|
  you may know                                                Dear
e|------- 2------ ------- 2------|------- 2------ ------- 2------|
B|--------2---------------2------|--------2---------------2------|
G|--------2---------------2------|--------2---------------2------|
D|--------4---------------3------|--------2---------------1------|
A|--------4---------------4------|--------4---------------2------|
E|--------2---------------2------|--------2----------------------|


  A                               Dbm             A7
e|0------ 0------ 0------ 0------|4------ 4------ 0------ 0------|
B|2-------2-------2-------2------|5-------5-------2-------2------|
G|2-------2-------2-------2------|6-------6-------0-------0------|
D|2-------2-------2-------2------|6-------6-------2-------2------|
A|0-------0-------0-------0------|4-------4-------0-------0------|
E|-------------------------------|-------------------------------|
  Angie                          please excuse
                                             the writing, it's my
e|------- 5------ ------- 5------|------- 4------ ------- 5------|
B|--------5---------------5------|--------5---------------5------|
G|--------6---------------6------|--------6---------------6------|
D|--------7---------------7------|--------6---------------5------|
A|--------7---------------7------|--------4---------------7------|
E|--------5---------------5------|------------------------5------|


  F#m             F#mmaj7         F#m7            B9
e|2------ 2------ 2------ 2------|2------ 2------ 2------ 2------|
B|2-------2-------2-------2------|2-------2-------2-------2------|
G|2-------2-------2-------2------|2-------2-------2-------2------|
D|4-------4-------3-------3------|2-------2-------1-------1------|
A|4-------4-------4-------4------|4-------4-------2-------2------|
E|2-------2-------2-------2------|2-------2----------------------|
  nerves,
      you know
e|------- 2------ ------- 2------|------- 2------ ------- 2------|
B|--------2---------------2------|--------2---------------2------|
G|--------2---------------2------|--------2---------------2------|
D|--------4---------------3------|--------2---------------1------|
A|--------4---------------4------|--------4---------------2------|
E|--------2---------------2------|--------2----------------------|


  F#m                             B9
e|2------ 2------ 2------ 2------|2------ 2------ 2------ 2------|
B|2-------2-------2-------2------|2-------2-------2-------2------|
G|2-------2-------2-------2------|2-------2-------2-------2------|
D|4-------4-------4-------4------|1-------1-------1-------1------|
A|4-------4-------4-------4------|2-------2-------2-------2------|
E|2-------2-------2-------2------|-------------------------------|
  When you caught             You took my heart and
             your train today                     soul away
e|------- ------- ------- -------|2------ ------- ------- 2------|
B|-------------------------------|2-----------------------2------|
G|-------------------------------|2-----------------------2------|
D|-------------------------------|1-----------------------1------|
A|-------------------------------|2-----------------------2------|
E|-------------------------------|-------------------------------|

e|------- ------- ------1617161716------ ------- -------1617161716-|
B|-------------------------------|---------------------------------|
G|-------------------------------|---------------------------------|
D|-------------------------------|---------------------------------|
A|-------------------------------|---------------------------------|
E|-------------------------------|---------------------------------|


  F#m                             B9
e|2------ 2------ 2------ 2------|2------ 2------ 2------ 2------|
B|2-------2-------2-------2------|2-------2-------2-------2------|
G|2-------2-------2-------2------|2-------2-------2-------2------|
D|4-------4-------4-------4------|1-------1-------1-------1------|
A|4-------4-------4-------4------|2-------2-------2-------2------|
E|2-------2-------2-------2------|-------------------------------|
  I can't wait 'til           To see you, touch you,
                  Friday night                    hold you tight
e|2------ ------- ------- -------|2------ ------- ------- -------|
B|2------------------------------|2------------------------------|
G|2------------------------------|2------------------------------|
D|4------------------------------|1------------------------------|
A|4------------------------------|2------------------------------|
E|2------------------------------|-------------------------------|

e|------- ------- ------1617161716------ ------- -------1617161716-|
B|-------------------------------|---------------------------------|
G|-------------------------------|---------------------------------|
D|-------------------------------|---------------------------------|
A|-------------------------------|---------------------------------|
E|-------------------------------|---------------------------------|

e|2------ 2------ 2------ 2------|
B|2-------2-------2-------2------|
G|2-------2-------2-------2------|
D|1-------1-------1-------1------|
A|2-------2-------2-------2------|
E|-------------------------------|
                              Dear

  A                               Dbm             A7
e|0------ 0------ 0------ 0------|4------ 4------ 0------ 0------|
B|2-------2-------2-------2------|5-------5-------2-------2------|
G|2-------2-------2-------2------|6-------6-------0-------0------|
D|2-------2-------2-------2------|6-------6-------2-------2------|
A|0-------0-------0-------0------|4-------4-------0-------0------|
E|-------------------------------|-------------------------------|
  Angie,                          how's your
                                          folks and
                                                  relatives?  I
e|------- 5------ ------- 5------|------- 4------ ------- 5------|
B|--------5---------------5------|--------5---------------5------|
G|--------6---------------6------|--------6---------------6------|
D|--------7---------------7------|--------6---------------5------|
A|--------7---------------7------|--------4---------------7------|
E|--------5---------------5------|------------------------5------|

e|------- ------- --7---- 7-5----|----4-- ------- ------- -------|
B|------------------5-----5-5----|----5---5---------5-----5------|
G|------------------6-----6-6----|6-----------6-----6-----6---6--|
D|----------------7-----7-------6|----------------5-------5------|
A|-------------------------------|-------------------------------|
E|-------------------------------|-------------------------------|


  F#m             F#mmaj7         F#m7            B9
e|2------ 2------ 2------ 2------|2------ 2------ 2------ 2------|
B|2-------2-------2-------2------|2-------2-------2-------2------|
G|2-------2-------2-------2------|2-------2-------2-------2------|
D|4-------4-------3-------3------|2-------2-------1-------1------|
A|4-------4-------4-------4------|4-------4-------2-------2------|
E|2-------2-------2-------2------|2-------2----------------------|
  hope they're                                                 Dear
          well
e|------- 2------ ------- 2------|------- 2------ ------- 2------|
B|--------2---------------2------|--------2---------------2------|
G|--------2---------------2------|--------2---------------2------|
D|--------4---------------3------|--------2---------------1------|
A|--------4---------------4------|--------4---------------2------|
E|--------2---------------2------|--------2----------------------|

e|------- ------- ------- -------|------- ------- ------- -------|
B|-------------------------------|----------------------2--------|
G|----------------4--------------|6-6-----------------2----------|
D|----------4-6-7---4-4-4-6-4-6-4|-----7-6764-6-4---1------------|
A|-------------------------------|-------------------------------|
E|-------------------------------|-------------------------------|


  A                               Dbm             A7
e|0------ 0------ 0------ 0------|4------ 4------ 0------ 0------|
B|2-------2-------2-------2------|5-------5-------2-------2------|
G|2-------2-------2-------2------|6-------6-------0-------0------|
D|2-------2-------2-------2------|6-------6-------2-------2------|
A|0-------0-------0-------0------|4-------4-------0-------0------|
E|-------------------------------|-------------------------------|
  Angie,                      I'm spending my vacation  at  that

e|------- 5------ ------- 5------|------- 4------ ------- 5------|
B|--------5---------------5------|--------5---------------5------|
G|--------6---------------6------|--------6---------------6------|
D|--------7---------------7------|--------6---------------5------|
A|--------7---------------7------|--------4---------------7------|
E|--------5---------------5------|------------------------5------|

e|------- ------- --7---- 7-5----|----4-- ------- ------- -------|
B|------------------5-----5-5----|----5-------------5-----5------|
G|------------------6-----6-6----|6-----------6-----6-----6------|
D|----------------7-----7-------6|----------------5-----5--------|
A|-------------------------------|-------------------------------|
E|-------------------------------|-------------------------------|


  F#m             F#mmaj7         F#m7            B9
e|2------ 2------ 2------ 2------|2------ 2------ 2------ 2------|
B|2-------2-------2-------2------|2-------2-------2-------2------|
G|2-------2-------2-------2------|2-------2-------2-------2------|
D|4-------4-------3-------3------|2-------2-------1-------1------|
A|4-------4-------4-------4------|4-------4-------2-------2------|
E|2-------2-------2-------2------|2-------2----------------------|
  same hotel                                                   I've

e|------- 2------ ------- 2------|------- 2------ ------- 2------|
B|--------2---------------2------|--------2---------------2------|
G|--------2---------------2------|--------2---------------2------|
D|--------4---------------3------|--------2---------------1------|
A|--------4---------------4------|--------4---------------2------|
E|--------2---------------2------|--------2----------------------|

e|------- ------- ----2-4 --2----|------- ------- ------- -------|
B|------------------2---------2--|2---------------------2--------|
G|----------------2-------------2|--------------------2----------|
D|--------------4----------------|----4-6-7-676-4---4------------|
A|-------------------------------|----------------6--------------|
E|-------------------------------|-------------------------------|


  F#m                             B9
e|2------ 2------ 2------ 2------|2------ 2------ 2------ 2------|
B|2-------2-------2-------2------|2-------2-------2-------2------|
G|2-------2-------2-------2------|2-------2-------2-------2------|
D|4-------4-------4-------4------|1-------1-------1-------1------|
A|4-------4-------4-------4------|2-------2-------2-------2------|
E|2-------2-------2-------2------|-------------------------------|
  known
    you now  for one whole year
                             There's
                                  something
                                       I've not told you, dear
e|2------ ------- ------- 2------|2------ ------- ------- 2------|
B|2-----------------------2------|2-----------------------2------|
G|2-----------------------2------|2-----------------------2------|
D|4-----------------------4------|1-----------------------1------|
A|4-----------------------4------|2-----------------------2------|
E|2-----------------------2------|-------------------------------|
                                        B            F#m7
e|------- ------- ------- -------|2-2---- ----7-7 ---14-- 1414---|
B|-------------------------------|2-2---7-7---7-7----14---1414---|
G|-------------------------------|2-2---8-8---8-8----14---1414---|
D|-------------------------------|1-1---9-9---9-9----14---1414---|
A|-------------------------------|2-2---9-9---9-9----------------|
E|-------------------------------|------7-7---7-7----14---1414---|


  F#m                             B9
e|2------ 2------ 2------ 2------|2------ 2------ 2------ 2------|
B|2-------2-------2-------2------|2-------2-------2-------2------|
G|2-------2-------2-------2------|2-------2-------2-------2------|
D|4-------4-------4-------4------|1-------1-------1-------1------|
A|4-------4-------4-------4------|2-------2-------2-------2------|
E|2-------2-------2-------2------|-------------------------------|
  Turned
       a blind eye for too long
                             this letter proves
                                            that I've been wrong
e|2------ ------- ------- 2------|2------ ------- ------- 2------|
B|2-----------------------2------|2-----------------------2------|
G|2-----------------------2------|2-----------------------2------|
D|4-----------------------4------|1-----------------------1------|
A|4-----------------------4------|2-----------------------2------|
E|2-----------------------2------|-------------------------------|
                                              B      F#m7     F#m9
e|------- ------- ------- -------|2-2---- ----7-7 ---14-- 1414-16|
B|-------------------------------|2-2---7-7---7-7----14---1414-14|
G|-------------------------------|2-2---8-8---8-8----14---1414-14|
D|-------------------------------|1-1---9-9---9-9----14---1414-14|
A|-------------------------------|2-2---9-9---9-9----------------|
E|-------------------------------|------7-7---7-7----14---1414---|

e|2------ 2------ 2------ 2------|
B|2-------2-------2-------2------|
G|2-------2-------2-------2------|
D|1-------1-------1-------1------|
A|2-------2-------2-------2------|
E|-------------------------------|
                              Ba
e|------- ------- ------- --12-14|
B|-------------------------------|
G|-------------------------------|
D|-------------------------------|
A|-------------------------------|
E|-------------------------------|


  A                               Db              A7
e|0------ 0------ 0------ 0------|4------ 4------ 0------ 0------|
B|2-------2-------2-------2------|5-------5-------2-------2------|
G|2-------2-------2-------2------|6-------6-------0-------0------|
D|2-------2-------2-------2------|6-------6-------2-------2------|
A|0-------0-------0-------0------|4-------4-------0-------0------|
E|-------------------------------|-------------------------------|
  ba  da                          Oooooooooooooooooooooooooo
e|------- 5------ ------- 5------|------- 4------ ------- 5------|
B|--------5---------------5------|--------5---------------5------|
G|--------6---------------6------|--------6---------------6------|
D|--------7---------------7------|--------6---------------5------|
A|--------7---------------7------|--------4---------------7------|
E|--------5---------------5------|------------------------5------|

e|------- ---1417 --14--- -----12|------- ------- --12--- -------|
B|---------17----------17-/14----|14--12--10--101214--12101210-10|
G|-------------------------------|----------11----------------11-|
D|-------------------------------|-------------------------------|
A|-------------------------------|-------------------------------|
E|-------------------------------|-------------------------------|

  F#m             F#mmaj7         F#m7            B9
e|2------ 2------ 2------ 2------|2------ 2------ 2------ 2------|
B|2-------2-------2-------2------|2-------2-------2-------2------|
G|2-------2-------2-------2------|2-------2-------2-------2------|
D|4-------4-------3-------3------|2-------2-------1-------1------|
A|4-------4-------4-------4------|4-------4-------2-------2------|
E|2-------2-------2-------2------|2-------2----------------------|
  ooooooooooooooooooooh                                       Ba
e|------- 2------ ------- 2------|------- 2------ ------- 2------|
B|--------2---------------2------|--------2---------------2------|
G|--------2---------------2------|--------2---------------2------|
D|--------4---------------3------|--------2---------------1------|
A|--------4---------------4------|--------4---------------2------|
E|--------2---------------2------|--------2----------------------|

e|------- ------- ------- -------|------- ------- ------- -------|
B|10---------910-9109-7-9-7------|-------------------------------|
G|---------11------------------9-|--------------9----------------|
D|-------------------------9H11-9H11--7---7-9H11--11-------------|
A|-------------------------------|-------------------------------|
E|-------------------------------|-------------------------------|


  A                               Dbm             A7
e|0------ 0------ 0------ 0------|4------ 4------ 0------ 0------|
B|2-------2-------2-------2------|5-------5-------2-------2------|
G|2-------2-------2-------2------|6-------6-------0-------0------|
D|2-------2-------2-------2------|6-------6-------2-------2------|
A|0-------0-------0-------0------|4-------4-------0-------0------|
E|-------------------------------|-------------------------------|
  ba  da                          Ooooooooooooooooooooooooooooooo

e|------- 5------ ------- 5------|------- 4------ ------- 5------|
B|--------5---------------5------|--------5---------------5------|
G|--------6---------------6------|--------6---------------6------|
D|--------7---------------7------|--------6---------------5------|
A|--------7---------------7------|--------4---------------7------|
E|--------5---------------5------|------------------------5------|

e|------- ------- ------- -------|------- ------- ------- -------|
B|-------------------------------|-------------------------------|
G|------------------9------------|--11--9-11-9-------------------|
D|----11--1111119-11-------------|-----------11-9-9-7-----7-9-7--|
A|-------------------------------|----------------------9--------|
E|-------------------------------|-------------------------------|


  F#m             F#mmaj7         F#m7            B9
e|2------ 2------ 2------ 2------|2------ 2------ 2------ 2------|
B|2-------2-------2-------2------|2-------2-------2-------2------|
G|2-------2-------2-------2------|2-------2-------2-------2------|
D|4-------4-------3-------3------|2-------2-------1-------1------|
A|4-------4-------4-------4------|4-------4-------2-------2------|
E|2-------2-------2-------2------|2-------2----------------------|
  ooooooooooooooooooooooh                                     I've

e|------- 2------ ------- 2------|------- 2------ ------- 2------|
B|--------2---------------2------|--------2---------------2------|
G|--------2---------------2------|--------2---------------2------|
D|--------4---------------3------|--------2---------------1------|
A|--------4---------------4------|--------4---------------2------|
E|--------2---------------2------|--------2----------------------|

e|------- ------- ------- -------|------- ------- ------- -------|
B|-------------------------------|-------------------------------|
G|-------------------------------|--------------9----------------|
D|7-------------------7-9-10979--|7-------7-9/11--11-------------|
A|----9-------------9-----------9|-----9-------------------------|
E|-------------------------------|-------------------------------|


  F#m                             B9
e|2------ 2------ 2------ 2------|2------ 2------ 2------ 2------|
B|2-------2-------2-------2------|2-------2-------2-------2------|
G|2-------2-------2-------2------|2-------2-------2-------2------|
D|4-------4-------4-------4------|1-------1-------1-------1------|
A|4-------4-------4-------4------|2-------2-------2-------2------|
E|2-------2-------2-------2------|-------------------------------|
  known
    you now  for one whole year
                             There's
                                  something
                                       I've not told you, dear
e|2------ ------- ------- -------|2------ ------- ------- -------|
B|2------------------------------|2------------------------------|
G|2------------------------------|2------------------------------|
D|4------------------------------|1------------------------------|
A|4------------------------------|2------------------------------|
E|2------------------------------|-------------------------------|
                                          B          F#m
e|------- ------- ------- -------|--2---- 7---7-7 ---14-- 1414---|
B|-------------------------------|--2-----7---7-7----14---1414---|
G|-------------------------------|--2-----8---8-8----14---1414---|
D|-------------------------------|--1-----9---9-9----14---1414---|
A|-------------------------------|--2-----9---9-9----------------|
E|-------------------------------|--------7---7-7----14---1414---|


  F#m                             B9
e|2------ 2------ 2------ 2------|2------ 2------ 2------ 2------|
B|2-------2-------2-------2------|2-------2-------2-------2------|
G|2-------2-------2-------2------|2-------2-------2-------2------|
D|4-------4-------4-------4------|1-------1-------1-------1------|
A|4-------4-------4-------4------|2-------2-------2-------2------|
E|2-------2-------2-------2------|-------------------------------|
  Turned
       a blind eye for too long
                             this letter proves
                                            that I've been wrong
e|2------ ------- ------- -------|2------ ------- ------- -------|
B|2------------------------------|2------------------------------|
G|2------------------------------|2------------------------------|
D|4------------------------------|1------------------------------|
A|4------------------------------|2------------------------------|
E|2------------------------------|-------------------------------|
                                         B           F#m
e|------- ------- ------- -------|--2---- ----7-7 ---14-- 1414---|
B|-------------------------------|--2---7-7---7-7----14---1414---|
G|-------------------------------|--2---8-8---8-8----14---1414---|
D|-------------------------------|--1---9-9---9-9----14---1414---|
A|-------------------------------|--2---9-9---9-9----------------|
E|-------------------------------|------7-7---7-7----14---1414---|



e|2------ 2------ 2------ 2------|
B|2-------2-------2-------2------|
G|2-------2-------2-------2------|
D|1-------1-------1-------1------|
A|2-------2-------2-------2------|
E|-------------------------------|
                              Dear
e|14----- ------- ------- -------|
B|14-----------------------------|
G|14-----------------------------|
D|14-----------------------------|
A|-------------------------------|
E|14-----------------------------|


  A                               Dbm             A7
e|0------ 0------ 0------ 0------|4------ 4------ 0------ 0------|
B|2-------2-------2-------2------|5-------5-------2-------2------|
G|2-------2-------2-------2------|6-------6-------0-------0------|
D|2-------2-------2-------2------|6-------6-------2-------2------|
A|0-------0-------0-------0------|4-------4-------0-------0------|
E|-------------------------------|-------------------------------|
  Angie,                     I've beat about the
                                               bush, it's time  I
e|------- 5------ ------- 5------|------- 4------ ------- 5------|
B|--------5---------------5------|--------5---------------5------|
G|--------6---------------6------|--------6---------------6------|
D|--------7---------------7------|--------6---------------5------|
A|--------7---------------7------|--------4---------------7------|
E|--------5---------------5------|------------------------5------|
e|------- ------- 12121212121212121412--- ------- ------- -------|
B|-----------1214----------------|-----13\12---------------------|
G|-------------------------------|------------------11------9----|
D|-------------------------------|----------------------9/11-----|
A|-------------------------------|-------------------------------|
E|-------------------------------|-------------------------------|


  F#m             F#mmaj7         F#m7            B9
e|2------ 2------ 2------ 2------|2------ 2------ 2------ 2------|
B|2-------2-------2-------2------|2-------2-------2-------2------|
G|2-------2-------2-------2------|2-------2-------2-------2------|
D|4-------4-------3-------3------|2-------2-------1-------1------|
A|4-------4-------4-------4------|4-------4-------2-------2------|
E|2-------2-------2-------2------|2-------2----------------------|
  spoke my mind                                               Dear
e|------- 2------ ------- 2------|------- 2------ ------- 2------|
B|--------2---------------2------|--------2---------------2------|
G|--------2---------------2------|--------2---------------2------|
D|--------4---------------3------|--------2---------------1------|
A|--------4---------------4------|--------4---------------2------|
E|--------2---------------2------|--------2----------------------|

e|------- ------- ------- -------|------- ------- ------- -------|
B|-------------------------------|-------------------------------|
G|-------------------------------|-------------------------------|
D|7---9---------------------7\6--|--7\6-----7\6------------------|
A|------9-----------9---7-9-----9|------9-------9-9--------------|
E|-------------------------------|-------------------------------|


  A                               Dbm             A7
e|0------ 0------ 0------ 0------|4------ 4------ 0------ 0------|
B|2-------2-------2-------2------|5-------5-------2-------2------|
G|2-------2-------2-------2------|6-------6-------0-------0------|
D|2-------2-------2-------2------|6-------6-------2-------2------|
A|0-------0-------0-------0------|4-------4-------0-------0------|
E|-------------------------------|-------------------------------|
  Angie,                     It's been a long time coming, guess I've
e|------- 5------ ------- 5------|------- 4------ ------- 5------|
B|--------5---------------5------|--------5---------------5------|
G|--------6---------------6------|--------6---------------6------|
D|--------7---------------7------|--------6---------------5------|
A|--------7---------------7------|--------4---------------7------|
E|--------5---------------5------|------------------------5------|

e|------- ------- ------- -------|------- ------- ------- -------|
B|-------------------------------|-------------------------------|
G|-------------------------------|--------------9-11-9-----------|
D|------------9---7-7---7-9-11---|----------9H11-----------------|
A|-------------------------------|-------------------------------|
E|-------------------------------|-------------------------------|


  F#m             F#mmaj7         F#m7            B9
e|2------ 2------ 2------ 2------|2------ 2------ 2------ 2------|
B|2-------2-------2-------2------|2-------2-------2-------2------|
G|2-------2-------2-------2------|2-------2-------2-------2------|
D|4-------4-------3-------3------|2-------2-------1-------1------|
A|4-------4-------4-------4------|4-------4-------2-------2------|
E|2-------2-------2-------2------|2-------2----------------------|
  been unkind                                                 Dear
e|------- 2------ ------- 2------|------- 2------ ------- 2------|
B|--------2---------------2------|--------2---------------2------|
G|--------2---------------2------|--------2---------------2------|
D|--------4---------------3------|--------2---------------1------|
A|--------4---------------4------|--------4---------------2------|
E|--------2---------------2------|--------2----------------------|

e|------- ------- ------- -------|------- ------- ------- -------|
B|--------------------------9-10-|--9-----9----------------------|
G|---11---1111-11-1111--9-11-----|------11-11--------------------|
D|-------------------------------|--------------9----------------|
A|-------------------------------|-------------------------------|
E|-------------------------------|-------------------------------|

  F#m                             B9
e|2------ 2------ 2------ 2------|2------ 2------ 2------ 2------|
B|2-------2-------2-------2------|2-------2-------2-------2------|
G|2-------2-------2-------2------|2-------2-------2-------2------|
D|4-------4-------4-------4------|1-------1-------1-------1------|
A|4-------4-------4-------4------|2-------2-------2-------2------|
E|2-------2-------2-------2------|-------------------------------|
  Angie,                  the writing's   on the wall         Dear
e|------- 2------ ------- 2------|------- 2------ ------- 2------|
B|--------2---------------2------|--------2---------------2------|
G|--------2---------------2------|--------2---------------2------|
D|--------4---------------4------|--------1---------------1------|
A|--------4---------------4------|--------2---------------2------|
E|--------2---------------2------|-------------------------------|


                                  Slow down
  F#m                             B9
e|2------ 2------ 2------ 2------|2------ 2------ 2------ 2------|
B|2-------2-------2-------2------|2-------2-------2-------2------|
G|2-------2-------2-------2------|2-------2-------2-------2------|
D|4-------4-------4-------4------|1-------1-------1-------1------|
A|4-------4-------4-------4------|2-------2-------2-------2------|
E|2-------2-------2-------2------|-------------------------------|
  Angie,                      I  love you, you're
                                              my all      Guess that's
e|------- 2------ ------- 2------|2------ ------- ------- -------|
B|--------2---------------2------|2------------------------------|
G|--------2---------------2------|2------------------------------|
D|--------4---------------4------|1------------------------------|
A|--------4---------------4------|2------------------------------|
E|--------2---------------2------|-------------------------------|

 (.
  F#
e|2------ ------- ------- -------|------- ------- ------- -------|
B|2------------------------------|-------------------------------|
G|3------------------------------|-------------------------------|
D|4------------------------------|-------------------------------|
A|4------------------------------|-------------------------------|
E|2------------------------------|-------------------------------|
  all.
e|----5H6 --7-5H6 ------- -------|------- ------- ------- -------|
B|----------------7---4---5------|-------------------------------|
G|------------------6------------|-------------------------------|
D|-------------------------------|-------------------------------|
A|-------------------------------|-------------------------------|
E|-------------------------------|-------------------------------|

e|6------ ------- ------- -------|------- ------- ------- -------|
B|5------------------------------|-------------------------------|
G|6------------------------------|-------------------------------|
D|4------------------------------|-------------------------------|
A|-------------------------------|-------------------------------|
E|-------------------------------|-------------------------------|



        B  Bend
        R  Release
        /  Slide up
        \  Slide down
        H  Hammer-on
        P  Pull-off
        ~  Vibrato
        +  Harmonic
        x  Mute note
        .  Play note like a dot in standard notation
        ^  Ties two notes together
        (. Pause





Comments


Popular Badfinger tabs & chords
No Matter What 3 Bass Tabs
Day After Day Chords
I'd Die Babe Chords
Love Time Chords
Take It All Chords
Your So Fine Chords
No Matter What 1 Tabs
Perfection Tabs
Carry On Till Tomorrow Ukulele
Day After Day Ukulele


Song lyrics



↑ Back to top | Tablatures and chords are parodies/interpretations of the original songs. You may use it for private study, scholarship, research or language learning purposes only
© 2014 AZChords.com Contact us | Privacy policy | DMCA | Add/correct tabs | Request tabs | Top 50 tabs