>
 >
Rock 'n' Roll Fantasy

Rock 'n' Roll Fantasy Guitar Tabs

Bad Company - Rock 'n' Roll Fantasy chords, tabs, tablatures, lyrics

Guitar lessons | Add/correct | Request | Top 50 tabs Artists:  A B C D E F G H I J K L M N O P Q R S T U V W X Y Z 0-9

Rock 'n' Roll Fantasy Guitar Tabs – Bad Company

CD, Sheet music, Poster

Do you like Rock 'n' Roll Fantasy? Share with your friends now
Tabs
Rock N Roll Fantasy - BAD COMPANY

Gtr I (E A D G B E)

  Moderately Q=110
 4/4
  Gtr I
  E E E E E E E E E E E E   E E E E E E E     Q E E E E E    E E    E
|-------------------------|---------------||---------------|------------|
|-------------------------|---------------||o--------------|------------|
|-------------------------|---------------||----9---9-9-9--|------------|
|-0h2-2-2p0---------------|-0h2-2---------||----9---9-9-9--|-0h2tr0p0---|
|-----------2-0h2-2-2p0---|-------0h2p0---||o---7---7-7-7--|------------|
|-----------------------3-|-------------3-||----0---0-0-0--|------------|


                             Verse 1&2 Q=H
  E E E    E       E  E    E   E E E  E  Q E   Q   E E E E E E
|----------------------------|---------------|--------------------|
|----------------------------|---------------|--------------------|
|-9--------------------------|--------9----5-|-------7-------9----|
|-9-0h2tr0p0-----/14-2--14-|---9-9-------5-|-------7-------9----|
|-7--------------------------|---7-7-------3-|-------5---5-5-7----|
|-0--------------------------|-------------3-|-------5---5-5-7----|


  E E E E  E  E E    E E E   E E E   E E E E E E  E E  E
|-----------------|----------------|------------------------|
|-----------------|----------------|------------------------|
|---9-----------5-|------7-------9-|-----9-7-7-9-------5----|
|---9-9-9-------5-|------7-------9-|---9-9-7-7-9-------5----|
|-7---7-7--7--5-3-|--3-3-5---5-5-7-|---7-------7--7-7--3----|
|-7---7----7--5-3-|--3-3-5---5-5-0-|-0------------7-7--3----|


  E E E E   E    E E E E  E E E      E E E E E E
|-------------|-----------------|-----------------||----|
|-------------|-----------------|----------------o||----|
|-----5-7-----|----9-9------9-9-|-----------------||----|
|-----5-7---9-|--9-9-9-9----9-9-|-----------------||----|
|-3-3-3-5---7-|--7-7---7--------|--------5-7p5---o||----|
|-3-3-3-5---0-|--0-----0--0-----|----5h7-------0--||----|


  Chorus Q=H
  E E E E  E E E   E E E E       E E E E  E E    E E E E  E  E
|----------------|-------2-----|---------------|---------------|
|----------------|-------3-----|-------3--3----|-------3--2----|
|-----0------2---|-----0-2-----|-----2-2--2-2--|-----2-2--2----|
|---2------2-----|-----0-0-----|-2-2-----------|---2------2--0-|
|-3-----0------0-|---2---------|-0-0-----------|-0-----------0-|
|----------------|-3-----------|---------------|---------------|


  Interlude Q=H
                                                                ~
  E E      E E  E  E E  E  E E E E E  E      E E  E  E E E    E E  E
|---------------------------------------------------------------------|
|---------------------------------------------------------------------|
|---------------------------------------------------------------------|
|---------------------------------------------------------------------|
|---9b10r==9-7--7-5-7--7--7-----5h7--9b10r==9-7--7-5-7-7b9--5-7--7--|
|-0--------------------------5h7--------------------------------------|


  E E E E E E      E E   E     E E  E  E E E E E E E      E E E E  E
|---------------------------|-------------------------------------------|
|---------------------------|-------------------------------------------|
|---------------------------|-------------------------------------------|
|---------------------------|-------------------------------------------|
|-----5h7---9b10r==9-7---7-|-/5-7--7--7-----5h7---9b10r==9-7-5-7--7b9--|
|-5h7-----0-----------------|------------5h7-----0----------------------|


             Last Verse Q=H
  E E     E    E E  E  E E  E E  E    E E E E  E E E E
|------------|----------------------|---------------------|
|------------|----------------------|---------------------|
|------------|----------------------|---------------------|
|------------|----------------------|---------------------|
|-5-7-----7-|---7--5--7----7----7-|---3---3----5---5----|
|------------|----------------------|---------------------|


  E E E E E E E E    E E E E E E E E   E E E E E E E E    E E E E E E E E
|------------------|-----------------|------------------|-----------------|
|------------------|-----------------|------------------|-----------------|
|------------------|-----------------|------------------|-----------------|
|------------------|-----------------|------------------|-----------------|
|---7-5-7---7---7-|---3---3---5---5-|---7-5-7---7---7-|---3---3---5---5-|
|------------------|-----------------|------------------|-----------------|


  Outro Q=H
  E E E E  E  E   E E E E  E    E E E E  E E E    E E E E E E E
|---------------|-------------|----------------|-----------------|
|-------3--2--0-|-------0--2--|-------3--2S7-7-|--5-5S3-3-2-3-0--|
|-----2-2-------|-----2-------|-----2-2--------|-----------------|
|---2-----------|---2---------|---2------------|-----------------|
|-0-------------|-0-----------|-0--------------|-----------------|
|---------------|-------------|----------------|-----------------|


                                Free Time Q=H
  E  E E  E E E    E   E E  E E   E      E  Q
|---------------|---------------|--------------*|----|
|-0----3--2h7-7-|--5--3-2--3-0-|-0------2-----*|----|
|-2--2-2--------|---------------|-2------2-----*|----|
|-2--2----------|---------------|-2------2-----*|----|
|-0-------------|---------------|-0------0-----*|----|
|---------------|---------------|--------------*|----|





Comments


Popular Bad Company tabs & chords
Bad Company Bass Tabs
Ready For Love 2 Bass Tabs
Smokin 45 Bass Tabs
Bad Company 1 Chords
Bad Company 2 Chords
Movin' On Chords
Shooting Star 1 Chords
Love Me Somebody Tabs
Rock Steady 1 Tabs
Run With The Pack Tabs


Song lyrics



↑ Back to top | Tablatures and chords are parodies/interpretations of the original songs. You may use it for private study, scholarship, research or language learning purposes only
© 2014 AZChords.com Contact us | Privacy policy | DMCA | Add/correct tabs | Request tabs | Top 50 tabs