>
 >
If You Need Somebody

If You Need Somebody Guitar Tabs

Bad Company - If You Need Somebody chords, tabs, tablatures, lyrics

Guitar lessons | Add/correct | Request | Top 50 tabs Artists:  A B C D E F G H I J K L M N O P Q R S T U V W X Y Z 0-9

If You Need Somebody Guitar Tabs – Bad Company

CD, Sheet music, Poster

Do you like If You Need Somebody? Share with your friends now
Tabs
Artist : Bad Company
Title  : If you needed somebody
Album  : Holy Water

formated by// mitzel the bear


comments// I want to thank Jay Tee for a really good friend.
and rock on you git box fans!!!!!!

Chord Formations

G9    : 320033 | G  : 320003 | Bm : 224432
C9    : x32033 | C  : 032010 | Em : 022000
Am+   : x00033 | Am : 002210 | F  : 133211
Dsus4 : x00233 | D  : 000232 | D7 : 000212


Intro:

 G9    C9           Am+   Dsus4       G9    C9          Am+   Dsus4
-3-----3-----3----|-3-----3-----3---|-3-----3-----3---|-3-----3-----3---|---|
---3-----3--------|---3-----3-------|---3-----3-------|---3-----3-------|---|
-----0-----0---0--|-----0-----2---2-|-----0-----0---0-|-----0-----2---2-|---|
------------------|-------0---------|-----------------|-------0---------|---|
-------3----------|-0---------------|-------3---------|-0---------------|---|
-3----------------|-----------------|-3---------------|-----------------|---|


Fig 1:

 G9    C9       Am+   Dsus4        G9    C9       Am+   Dsus4
-3-----3------|-3-----3-----3----|-3-----3------|-3-----3-----3----|---------|
---3-----3----|---3-----3--------|---3-----3----|---3-----3--------|---------|
-----0-----0--|-----0-----2---2--|-----0-----0--|-----0-----2---2--|---------|
--------------|-------0----------|--------------|-------0----------|---------|
-------3------|-0----------------|-------3------|-0----------------|---------|
-3------------|------------------|-3------------|------------------|---------|


Fig 2 :

-------0--------------------------------------------------------------------|
-------1--------------------------------------------------------------------|
-------0--------------------------------------------------------------------|
-------2--------------------------------------------------------------------|
-0-2-3-3--------------------------------------------------------------------|
----------------------------------------------------------------------------|

Intro  : Intro

         (Fig 1)
Verse 1: Should've told you by now...
Verse 2: If I could hold you tonight...


Bridges:
(Fig 2) C                  Bm
       You don't see me looking at you...
       Am--G
       C--Bm
       Am--C-D

Chorus:
       G                 D
       If you needed somebody...
       Am--C-D
       G--D
       Am--C-D
       G-C--Am-D7--G (Fig 1)


Extra :
        F                G
       Ooh, if I could tell you now...
       F--G
       F--Em
       F--C

Outro :
               G
       Yeah, I'll be there, I want you...
       D--Am--C-D
       G--D
       Am--C-D





Comments


Popular Bad Company tabs & chords
Feel Like Makin' Love Bass Tabs
Feel Like Makin' Love 1 Bass Tabs
Early In The Morning Chords
Seagull Chords
Seagull 2 Chords
Seagull 3 Chords
Burnin' Sky 1 Tabs
Gone, Gone, Gone Tabs
Movin' On 1 Tabs
Cant Get Enough Of Your Love Ukulele


Song lyrics



↑ Back to top | Tablatures and chords are parodies/interpretations of the original songs. You may use it for private study, scholarship, research or language learning purposes only
© 2014 AZChords.com Contact us | Privacy policy | DMCA | Add/correct tabs | Request tabs | Top 50 tabs