» » »

Soul Craft Tabs (ver.1)

Artists:  A B C D E F G H I J K L M N O P Q R S T U V W X Y Z # 

Soul Craft Tabs (ver.1)

Bad Brains
Rating:
0/5 (0 votes)

Tabs too difficult? Try these video lessons and learn fast.
                E|---------------------------------|---------------------------------|
B|---------------------------------|---------------------------------| 
G|---------------------------------|---------------------------------|
D|-7s6-6-4---4---4-7s6---4---7-6-7-|---7-6-7-9---8-9---9-8-6-8-6-----|
A|-5s4-4-2---2---2-5s4---2---5-4-5-|---5-4-5-7---6-7---7-6-4-6-4-----|
E|---------------------------------|---------------------------------| 

e|---------------------------------|---------------------------------|
B|---------------------------------|---------------------------------| 
G|---------------------------------|---------------------------------|
D|-7s6-6-4---4---4-7s6---4---7-6-7-|---7-6-7-9---8-9---9s8---6-------|
A|-5s4-4-2---2---2-5s4---2---5-4-5-|---5-4-5-7---6-7---7s6---4-------|
E|---------------------------------|---------------------------------|
                                   1                                 2
e|---------------------------------|---------------------------------|------|
B|---------------------------------|---------------------------------|------|
G|-9-------8-----11----------------|-9-------8-----------------------|-9-9--|
D|-9-------8-----11----------------|-9-------8----10-----------------|-9-9--|
A|-7-------6-----9-----------------|-7-------6----10-----------------|-7-7--|
E|---------------------------------|--------------8------------------|------|

improvise the solo-part, because cool guys do so
            
Tabs too difficult? Try these video lessons and learn fast.


comments powered by Disqus
↑ Back to top | Tablatures and chords are parodies/interpretations of the original songs. You may use it for private study, scholarship, research or language learning purposes only