» » »

Pay To Cum Bass tabs (ver.1)

Artists:  A B C D E F G H I J K L M N O P Q R S T U V W X Y Z # 

Pay To Cum Bass tabs (ver.1)

Bad Brains
Rating:
4/5 (3 votes)

Hard to play? Try these video lessons and learn fast.
                here's how i play it... it sounds a little better.

Main Riff (not the exact number of times to strum, but you'll get it)
G----------------|
D----------------|
A--5555-77-------|
E----------5555--|

Verse
G---------------------|
D-----------55555432--|
A---------------------|
E--33333333-----------|

"Chorus" (those are tens below)
G------------------------------|
D------------------------------|
A--101010101010-9-7------------|
E-------------------10-777777--|

After Chorus
G-------------------|
D-------------------|
A-------7---3-------|
E--10-7---5---3-0~--|

it should be easy to figure out where everything goes. it's only hard cause it's played fast as hell!
            
Hard to play? Try these video lessons and learn fast. | Correct




comments powered by Disqus
↑ Back to top | Tablatures and chords are parodies/interpretations of the original songs. You may use it for private study, scholarship, research or language learning purposes only