» » »

I And I Survive Tabs (ver.1)

Artists:  A B C D E F G H I J K L M N O P Q R S T U V W X Y Z # 

I And I Survive Tabs (ver.1)

Bad Brains
Rating:
0/5 (0 votes)

Hard to play? Try these video lessons and learn fast.
                
Tuning:Standard

No one tabbed this song at all song here goes.

Intro

e|---------------------------------------------------------------------------|
B|---------------------------------------------------------------------------|
G|---------------------------------------------------------------------------|
D|---9-----------------------------------------------------------------------|
A|---7----9--------7-6-5-----------------------------------------------------|
E|--------7---------------7-6-5----------------------------------------------|

Verse
       Em    Bm
e|-----7-----7---------------------------------------------------------------|
B|-----8-----7---------------------------------------------------------------|
G|-----9-----7---------------------------------------------------------------|
D|-----9-----9---------------------------------------------------------------|
A|-----7-----9---------------------------------------------------------------|
E|-----------7---------------------------------------------------------------|

Chorus
     Am        Bm
e|----5--------7-------------------------------------------------------------|
B|----5--------7-------------------------------------------------------------|
G|----5--------7-------------------------------------------------------------|
D|----7--------9-------------------------------------------------------------|
A|----7--------9-------------------------------------------------------------|
E|----5--------7-------------------------------------------------------------|

There is a bridge that I could not figure out I think they change keys for it or just 
major chords I just do Am and Bm.

************************************

| /   slide up
| \   slide down
| h   hammer-on
| p   pull-off
| ~   vibrato
| +   harmonic
| x   Mute note
| b   Bend
| pb  Pre-bend
| br  Bend release
| pbr Pre-bend release
| brb Bend release bend

************************************
            
Hard to play? Try these video lessons and learn fast. | Correct




comments powered by Disqus
↑ Back to top | Tablatures and chords are parodies/interpretations of the original songs. You may use it for private study, scholarship, research or language learning purposes only