» » »

Bad Acid Trip, Cigarette Pack Tabs (ver.1)

Artists:  A B C D E F G H I J K L M N O P Q R S T U V W X Y Z # 

Cigarette Pack Tabs (ver.1)

Bad Acid Trip Tabs
 Rating:
4/5 (6 votes)
Cigarette Pack lessons Tabs too difficult? Try these video lessons and learn fast
                -----------------------------------------------------------------------------
-----------------------------------------------------------------------------

Tuning: Drop-D (DADGBe)

::INTRO::

(0:18) x 6               (0:25) x 1              (0:26) x 8
e|-----------------------|-----------------------|--------------------------|
B|-----------------------|-----------------------|--------------------9-----|
G|-----------------------|---9-9-9-9-12-12-12-12-|--------------------9-----|
D|-----------------------|-----------------------|--------------------9-----|
A|-----------------------|-----------------------|--------------------------|
D|---2---2-2---5---5-5---|-----------------------|---2---2-2---5------------|
[PM] .   . .   .   . .                               .   . .   .

(0:35) x 1
e|-------------------------------------|
B|-------------------------------------|
G|---9-9-9-9-12-9----------------------|
D|----------------12-9-7-7-7-7-9-7-5-5-|
A|-------------------------------------|
D|-------------------------------------|

(0:37) x 4                            (0:46) x 4
e|------------------------------------|-------------------------------------|
B|------------------------------------|-------------------------------------|
G|---9--9-9-12-9----------------------|----------------------9--------------|
D|---------------12-9-7--7-7-9-7-5-5--|----------------------9--------------|
A|------------------------------------|----------------------9--------------|
D|------------------------------------|---2---2-2---5-----------------------|
[PM]                                     .   . .   .

::VERSE::
(0:51) x 8                            (1:09) x 4
e|------------------------------------|-------------------------------------|
B|------------------------------------|-------------------------------------|
G|---9--9-9-12-9----------------------|----------------------9--------------|
D|---------------12-9-7--7-7-9-7-5-5--|----------------------9--------------|
A|------------------------------------|----------------------9--------------|
D|------------------------------------|-------------------------------------|
e|------------------------------------|---2---2-2---5-----------------------|
[PM]                                      .   . .   .

THAT IS MAJORITY OF THE SONG -- THERE'S ABOUT ANOTHER 30 SECONDS TO TAB THAT I'LL DO WHEN I GET HOME.

THANKYOU, AND COMMENT!!
            
Submit corrections

comments powered by Disqus
↑ Back to top | Bad Acid Trip Tabs for Cigarette Pack. Lyrics for acoustic guitar and electric guitar. Tablatures and chords are parodies/interpretations of the original songs. You may use it for private study, scholarship, research or language learning purposes only