» » »

Bad Acid Trip, Beef Moo Tabs (ver.1)

Artists:  A B C D E F G H I J K L M N O P Q R S T U V W X Y Z # 

Beef Moo Tabs (ver.1)

Bad Acid Trip Tabs
 Rating:
4/5 (4 votes)
Beef Moo lessons Tabs too difficult? Try these video lessons and learn fast
                -------------------------------------------------------------------------------

-------------------------------------------------------------------

Tuning: Dropped D --- D A D G B e ---

e|---------------------------------------------------------------------------|
B|---------------------------------------------------------------------------|
G|-11~-----14~-------------------------------11-11-11-11-11--14-14-14-14-14--|
D|-10~-----13~----x6-------------2-2--2--2---10-10-10-10-10--13-13-13-13-13--|
A|--9~-----12~-------------------2-2--2--2----9--9--9--9--9--12-12-12-12-12--|
D|-------------------------------2-2--2--2-----------------------------------|

e|---------------------------------------------------------------------------|
B|---------------------------------------------------------------------------|
G|---------------------------------------------------------------------------|
D|-2-2-2-2-2-----14~----11~-----2~----11~-----14~-----2~-----14~----11~------|
A|-2-2-2-2-2-----13~----10~-----2~----10~-----13~-----2~-----13~----10~------|
D|-2-2-2-2-2-----12~-----9~-----2~-----9~-----12~-----2~-----12~-----9~------|

e|---------------------------------------------------------------------------|
B|---------------------------------------------------------------------------|
G|---11------11---------14---------14---------11---------11------14-14-------|
D|----10-------10---------13---------13----------10--------10---------13-x2--|
A|--9-------9--------12----------12---------9----------9--------12-----------|
D|---------------------------------------------------------------------------|

e|---------------------------------------------------------------------------|
B|---------------------------------------------------------------------------|
G|--11-11-11-11-11-11-11---14-14-14-14-17-14------11-11-11-11-11-11-11--18---|
D|---------------------------------------------------------------------------|
A|---------------------------------------------------------------------------|
D|---------------------------------------------------------------------------|

e|---------------------------------------------------------------------------|
B|---------------------------------------------------------------------------|
G|-18-18---14-------x2-------------------------------------------------------|
D|-------------13------------------------------------------------------------|
A|---------------------------------------------------------------------------|
D|---------------------------------------------------------------------------|

e|---------------------------------------------------------------------------|
B|---------------------------------------------------------------------------|
G|---11------11---------14---------14---------11---------11------14-14-------|
D|----10-------10---------13---------13----------10--------10---------13-x2--|
A|--9-------9--------12----------12---------9----------9--------12-----------|
D|---------------------------------------------------------------------------|

e|---------------------------------------------------------------------------|
B|---------------------------------------------------------------------------|
G|-11~-----14~-------------------------------11-11-11-11-11--14-14-14-14-14--|
D|-10~-----13~----x4-------------2-2--2--2---10-10-10-10-10--13-13-13-13-13--|
A|--9~-----12~-------------------2-2--2--2----9--9--9--9--9--12-12-12-12-12--|
D|-------------------------------2-2--2--2-----------------------------------|

e|---------------------------------------------------------------------------|
B|---------------------------------------------------------------------------|
G|---------------------------------------------------------------------------|
D|-2-2-2-2-2-----14~----11~-----2~----11~-----14~-----2~-----14~----11~------|
A|-2-2-2-2-2-----13~----10~-----2~----10~-----13~-----2~-----13~----10~------|
D|-2-2-2-2-2-----12~-----9~-----2~-----9~-----12~-----2~-----12~-----9~------|

e|---------------------------------------------------------------------------|
B|---------------------------------------------------------------------------|
G|---11------11---------14---------14---------11---------11------14-14-------|
D|----10-------10---------13---------13----------10--------10---------13-x2--|
A|--9-------9--------12----------12---------9----------9--------12-----------|
D|---------------------------------------------------------------------------|

e|---------------------------------------------------------------------------|
B|---------------------------------------------------------------------------|
G|--11-11-11-11-11-11-11---14-14-14-14-17-14------11-11-11-11-11-11-11--18---|
D|---------------------------------------------------------------------------|
A|---------------------------------------------------------------------------|
D|---------------------------------------------------------------------------|

e|---------------------------------------------------------------------------|
B|---------------------------------------------------------------------------|
G|-18-18---14-------x2-------------------------------------------------------|
D|-------------13------------------------------------------------------------|
A|---------------------------------------------------------------------------|
D|---------------------------------------------------------------------------|

e|---------------------------------------------------------------------------|
B|---------------------------------------------------------------------------|
G|---11------11---------14---------14---------11---------11------14-14-------|
D|----10-------10---------13---------13----------10--------10---------13-x2--|
A|--9-------9--------12----------12---------9----------9--------12-----------|
D|---------------------------------------------------------------------------|

e|---------------------------------------------------------------------------|
B|---------------------------------------------------------------------------|
G|-11~-----14~-------------------------------11-11-11-11-11--14-14-14-14-14--|
D|-10~-----13~----x4-------------2-2--2--2---10-10-10-10-10--13-13-13-13-13--|
A|--9~-----12~-------------------2-2--2--2----9--9--9--9--9--12-12-12-12-12--|
D|-------------------------------2-2--2--2-----------------------------------|

e|---------------------------------------------------------------------------|
B|---------------------------------------------------------------------------|
G|---------------------------------------------------------------------------|
D|-2-2-2-2-2-----14~----11~-----2~----11~-----14~-----2~-----14~----11~------|
A|-2-2-2-2-2-----13~----10~-----2~----10~-----13~-----2~-----13~----10~------|
D|-2-2-2-2-2-----12~-----9~-----2~-----9~-----12~-----2~-----12~-----9~------|

           --Bridge Part---
e|---------------------------------------------------------------------------|
B|---------------------------------------------------------------------------|
G|---------------4-4-3-3---------4-4-3-3---------4-4-3-3---------4-4-3-3-----|
D|-2~----2-2-2-2---------2-2-2-2---------2-2-2-2---------2-2-2-2-------------|
A|-2~------------------------------------------------------------------------|
D|-2~------------------------------------------------------------------------|


e|---------------------------------------------------------------------------|
B|---------------------------------------------------------------------------|
G|---------4-4-3-3----------4-4-3-3------------------------------------------|
D|-2-2-2-2----------2-2-2-2--------------------------------------------------|
A|---------------------------------------1-1-2-2-3-3-3-3---1-1-2-2-3-3-3-3---|
D|---------------------------------------------------------------------------|

e|---------------------------------------------------------------------------|
B|---------------------------------------------------------------------------|
G|--3-3-3-3-4-4-4-4----3-3-3-3-4-4-4-4----3-3-3-3-4-4-4-4----3-3-3-3-4-4-4-4-|
D|--x-x-x-x-x-x-x-x----x-x-x-x-x-x-x-x----x-x-x-x-x-x-x-x----x-x-x-x-x-x-x-x-|
A|--1-1-1-1-2-2-2-2----1-1-1-1-2-2-2-2----1-1-1-1-2-2-2-2----1-1-1-1-2-2-2-2-|
D|---------------------------------------------------------------------------|

e|---------------------------------------------------------------------------|
B|---------------------------------------------------------------------------|
G|---------------------------------------------------------------------------|
D|---------------------------------------------------------------------------|
A|-1-1-2-2-3-3-3-3---1-1-2-2-3-3-3-3---1-1-2-2-3-3-3-3---1-1-2-2-3-3-3-3-3---|
D|---------------------------------------------------------------------------|

e|---------------------------------------------------------------------------|
B|---------------------------------------------------------------------------|
G|--3-3-3-3-4-4-4-4----3-3-3-3-4-4-4-4----3-3-3-3-4-4-4-4----3-3-3-3-4-4-4-4-|
D|--x-x-x-x-x-x-x-x----x-x-x-x-x-x-x-x----x-x-x-x-x-x-x-x----x-x-x-x-x-x-x-x-|
A|--1-1-1-1-2-2-2-2----1-1-1-1-2-2-2-2----1-1-1-1-2-2-2-2----1-1-1-1-2-2-2-2-|
D|---------------------------------------------------------------------------|

e|---------------------------------------------------------------------------|
B|---------------------------------------------------------------------------|
G|-------------4-4-3-3---------4-4-3-3---------4-4-3-3---------4-4-3-3-------|
D|-----2-2-2-2---------2-2-2-2---------2-2-2-2---------2-2-2-2---------------|
A|---------------------------------------------------------------------------|
D|---------------------------------------------------------------------------|

e|---------------------------------------------------------------------------|
B|---------------------------------------------------------------------------|
G|---------------------------------------------------------------------------|
D|---------------------------------------------------------------------------|
A|-1-1-2-2-3-3-3-3---1-1-2-2-3-3-3-3---1-1-2-2-3-3-3-3---1-1-2-2-3-3-3-3-3---|
D|---------------------------------------------------------------------------|

e|---------------------------------------------------------------------------|
B|---------------------------------------------------------------------------|
G|--3-3-3-3-4-4-4-4----3-3-3-3-4-4-4-4----3-3-3-3-4-4-4-4----3-3-3-3-4-4-4-4-|
D|--x-x-x-x-x-x-x-x----x-x-x-x-x-x-x-x----x-x-x-x-x-x-x-x----x-x-x-x-x-x-x-x-|
A|--1-1-1-1-2-2-2-2----1-1-1-1-2-2-2-2----1-1-1-1-2-2-2-2----1-1-1-1-2-2-2-2-|
D|---------------------------------------------------------------------------|

e|---------------------------------------------------------------------------|
B|---------------------------------------------------------------------------|
G|---------------------------------------------------------------------------|
D|---------------------------------------------------------------------------|
A|-1-1-2-2-3-3-3-3---1-1-2-2-3-3-3-3---1-1-2-2-3-3-3-3---1-1-2-2-3-3-3-3-3---|
D|---------------------------------------------------------------------------|

e|---------------------------------------------------------------------------|
B|---------------------------------------------------------------------------|
G|--3-3-3-3-4-4-4-4----3-3-3-3-4-4-4-4----3-3-3-3-4-4-4-4----3-3-3-3-4-4-4-4-|
D|--x-x-x-x-x-x-x-x----x-x-x-x-x-x-x-x----x-x-x-x-x-x-x-x----x-x-x-x-x-x-x-x-|
A|--1-1-1-1-2-2-2-2----1-1-1-1-2-2-2-2----1-1-1-1-2-2-2-2----1-1-1-1-2-2-2-2-|
D|---------------------------------------------------------------------------|

e|---------------------------------------------------------------------------|
B|---------------------------------------------------------------------------|
G|-------------4-4-3-3---------4-4-3-3---------4-4-3-3---------4-4-3-3-------|
D|-----2-2-2-2---------2-2-2-2---------2-2-2-2---------2-2-2-2---------------|
A|---------------------------------------------------------------------------|
D|---------------------------------------------------------------------------|

e|---------------------------------------------------------------------------|
B|---------------------------------------------------------------------------|
G|---------------------------------------------------------------------------|
D|---------------------------------------------------------------------------|
A|-1-1-2-2-3-3-3-3---1-1-2-2-3-3-3-3---1-1-2-2-3-3-3-3---1-1-2-2-3-3-3-3-3---|
D|---------------------------------------------------------------------------|

e|---------------------------------------------------------------------------|
B|---------------------------------------------------------------------------|
G|-11-11-11-11-11--14-14-14-14-14--------------14-14-14-14-14--11-11-11-11-11|
D|-10-10-10-10-10--13-13-13-13-13--2-2-2-2-2---13-13-13-13-13--10-10-10-10-10|
A|--9--9--9--9--9--12-12-12-12-12--2-2-2-2-2---12-12-12-12-12--9--9--9--9--9-|
D|---------------------------------2-2-2-2-2---------------------------------|

e|---------------------------------------------------------------------------|
B|---------------------------------------------------------------------------|
G|---------------------------------------------------------------------------|
D|-2~------------------------------------------------------------------------|
A|-2~------------------------------------------------------------------------|
D|-2~------------------------------------------------------------------------|
            
Submit corrections

comments powered by Disqus
↑ Back to top | Bad Acid Trip Tabs for Beef Moo. Lyrics for acoustic guitar and electric guitar. Tablatures and chords are parodies/interpretations of the original songs. You may use it for private study, scholarship, research or language learning purposes only