» » »

Backyard Babies, Payback Bass tabs (ver.1)

Artists:  A B C D E F G H I J K L M N O P Q R S T U V W X Y Z # 

Payback Bass tabs (ver.1)

Backyard Babies Tabs
Rating:
0/5 (0 votes)
Payback lessons Tabs too difficult? Try these video lessons and learn fast
                Band: Backyard Babies
Instrument: Bass

Verse1:
Gb|-----------------------------|
Db|-----------------------------|
Ab|-----------------------------|
Eb|-0-0-3-0-5-0-6-5-(x3)--3~-7~-|

Verse2:
Gb|-----------------------------|
Db|-----------------------------|
Ab|-----------------------------|
Eb|-0-0-3-0-5-0-6-5-(x4)--------|

Pre-Chorus:
Gb|---------------------------------|
Db|---------------------------------|
Ab|---------------------------------|
Eb|-7-7-7-7-6--7-7-7-7-6--7-7-7-7-6-|

Chorus:
Gb|----------------------------------------------------------------|
Db|----------------------------------------------------------------|
Ab|-7-7-7-7-7-7-7-7-10-10-10-10-10-10-10-10----------3-3-3-3-5-5-5-|
Eb|------------------------------------------3--7--0---------------|

Post-Chorus:
Gb|----------------------------------------|
Db|----------------------------------------|
Ab|----------------------------------------|
Eb|-0-3-5-6-5-3-0-(Pause)-0-3-5-6-5-3-0----|

Breakdown:
Gb|------------------------------------|
Db|------------------------------------|
Ab|-3~---5~----7-7-7-7-7-7-7-7---------|
Eb|------------------------------------|

Gb|--------------------------------------------|
Db|--------------------------------------------|
Ab|-3~---5~------------------------------------|
Eb|------------6-6-6-6-6-6-6-6-6-6-6-6-6-6-6-6-|

Extended Post-Chorus:
Gb|-----------------------------------------------------|
Db|-----------------------------------------------------|
Ab|-----------------------------------------------------|
Eb|-0-3-5-6-5-3-0-3-5-6-5-3-0-3-5-6-5-3-0-6-6-6-6-6-5-3-|

Solo:
Gb|---------------------------------------|
Db|---------------------------------------|
Ab|---------------------------------------|
Eb|-0-0-3-0-5-0-6-5--0-0-3-0-5-0-6-5------|

Gb|---------------------------------------|
Db|---------------------------------------|
Ab|-0-0-3-0-5-0-6-5--0-0-3-0-5-0-6-5------|
Eb|---------------------------------------|

Gb|---------------------------------------|
Db|---------------------------------------|
Ab|---------------------------------------|
Eb|-0-0-3-0-5-0-6-5--0-0-3-0-5-0-6-5------|

Order:
Verse 1 - x1
Verse 2 - x1
Pre-Chorus - x1
Chorus - x2
Post-Chorus - x1
Verse 1 - x1
Verse 2 - x1
Pre-Chorus - x1
Chorus - x2
Breakdown - x1
Post-Chorus - x1
Extended Post Chorus - x1
Solo - x1
Pre-Chorus - x1
Chorus - Play it til you Drop!


+---------------------------+
|     Taken from Dreggy's   |
+---------------------------+
            

comments powered by Disqus
↑ Back to top | Backyard Babies Bass for Payback. Lyrics for acoustic guitar and electric guitar. Tablatures and chords are parodies/interpretations of the original songs. You may use it for private study, scholarship, research or language learning purposes only