» » »

Backyard Babies, Payback Tabs (ver.2)

Artists:  A B C D E F G H I J K L M N O P Q R S T U V W X Y Z # 

Payback Tabs (ver.2)

Backyard Babies Tabs
Rating:
0/5 (0 votes)
Payback lessons Tabs too difficult? Try these video lessons and learn fast
                Another great song by the swedish band Backyard Babies

If you have any corrections send them to:

Have fun

Riff 1:

|---------------|---------------|---------------|-------|
|---------------|---------------|---------------|-------|
|---------------|---------------|---------------|---4---|
|---------------|---------------|---------------|-5-4---| x2
|-0-0-3-0-5-0-65|-0-0-3-0-5-0-65|-0-0-3-0-5-0-65|-5-2---|
|-0-0-3-0-5-0-65|-0-0-3-0-5-0-65|-0-0-3-0-5-0-65|-3-----|



Pre-chorus:

|---------------|---------------|---------------|
|---------------|---------------|---------------|
|---------------|---------------|---------------|
|-9-9-9-9-8-7---|-9-9-9-9-8-7---|-9-9-9-9-8-7---|
|-9-9-9-9-8-7---|-9-9-9-9-8-7---|-9-9-9-9-8-7---|
|-9-9-9-9-8-7---|-9-9-9-9-8-7---|-9-9-9-9-8-7---|

Chorus:

|-----------------|-----------------|------------------------| 
|-----------------|-----------------|------------------------| 
|-9-9-9-9-9-9-9-9-|-----------------|----4-----5-5-5-5-7-7-7-| 
|-9-9-9-9-9-9-9-9-|-5-5-5-4-4-4-4-4-|-5--4--2--5-5-5-5-7-7-7-| x2
|-7-7-7-7-7-7-7-7-|-5-5-5-5-5-5-5-5-|-5--2--2--3-3-3-3-5-5-5-| 
|-----------------|-3-3-3-2-2-2-2-2-|-3-----2----------------| 

Riff 2

|---------------|----------|---------------|
|---------------|----------|---------------|
|---------------|----------|---------------|
|---------------|----------|---------------|
|-0-3-565-3-0---|---REST---|-0-3-565-3-0---|
|-0-3-565-3-0---|----------|-0-3-565-3-0---|

Riff 3:

|----------------|----------------|-----------------| 
|----------------|----------------|-----------------| 
|-5--------------|-7--------------|-9-9-9-9-9-9-9-9-| 
|-5--------------|-7--------------|-9-9-9-9-9-9-9-9-| x2
|-3--------------|-5--------------|-7-7-7-7-7-7-7-7-| 
|----------------|----------------|-----------------| 

Solo:

|---------------|-------|---------------|-------|
|---------------|-------|---------------|-------|
|---------------|-------|---------------|-------|
|---------------|-x-x-x-|---------------|-x-x-x-|
|-0-3-565-3-0---|-x-x-x-|-0-3-565-3-0---|-x-x-x-|
|-0-3-565-3-0---|-x-x-x-|-0-3-565-3-0---|-x-x-x-|

|-----------|-----------|----------------|-------|
|-----------|-----------|----------------|-------|
|-----------|-----------|----------------|-------|
|-----------|-----------|----------------|-------|
|-0-3-565-3-|-0-3-565-3-|-0-3-56---------|-6-5-3-|
|-0-3-565-3-|-0-3-565-3-|-0-3-56---------|-6-5-3-|

|---------------|---------------|---------------|---------------|
|---------------|---------------|---------------|---------------|
|---------------|---------------|---------------|---------------|
|---------------|---------------|---------------|---------------|
|-0-0-3-0-5-0-65|-0-0-3-0-5-0-65|-0-0-3-0-5-0-65|-0-0-3-0-5-0-65|
|-0-0-3-0-5-0-65|-0-0-3-0-5-0-65|-0-0-3-0-5-0-65|-0-0-3-0-5-0-65|

|------------|---------------|---------------|---------------|
|------------|---------------|---------------|---------------|
|------------|---------------|---------------|---------------|
|-0-0-5-0-6-5|-0-0-3-0-5-0-65|---------------|---------------| 
|-0-0-5-0-6-5|-0-0-3-0-5-0-65|-0-0-3-0-5-0-65|-0-0-3-0-5-0-65|
|------------|---------------|-0-0-3-0-5-0-65|-0-0-3-0-5-0-65|


Order of song:

Riff 1(Verse)
Pre-chorus
Chorus
Riff 2
Riff 1(Verse)
Pre-chorus
Chorus
Riff 3
Solo
Pre-chorus
Chorus x4
            

comments powered by Disqus
↑ Back to top | Backyard Babies Tabs for Payback. Lyrics for acoustic guitar and electric guitar. Tablatures and chords are parodies/interpretations of the original songs. You may use it for private study, scholarship, research or language learning purposes only