» » »

Backyard Babies, Nomadic Tabs (ver.1)

Artists:  A B C D E F G H I J K L M N O P Q R S T U V W X Y Z # 

Nomadic Tabs (ver.1)

Backyard Babies Tabs
 Rating:
4/5 (4 votes)
Nomadic lessons Tabs too difficult? Try these video lessons and learn fast
1
                First Tab Ive ever written and its purely my own interpretation of the song.

Tuning: D

Intro
D|---------------------------------------------------------------------------|
A|6---6---4---6---6---4---6---6---4---6---2---6---4--------------------------|
F|6---5---4---6---5---4---6---5---4---6---2---5---4--------------------------|
C|6---2---4---6---2---4---6---2---4---6---2---2---4--------------------------|
G|4---2---2---4---2---2---4---2---2---4---0---2---2--------------------------|
D|---------------------------------------------------------------------------|

Chorus

D|---------------------------------------------------------------------------|
A|6--2---5---4---6---2---5---4---2---6---4---------------2---4---6-----------|
F|6--2---4---4---6---2---4---4---2---6---4---4---4---6---2---4---6-----------|
C|6--2---2---4---6---2---2---4---2---6---4---4---4---6---2---4---6-----------|
G|4--0---2---2---4---0---2---2---0---4---2---4---4---6---0---2---4-----------|
D|-------0---------------0-------------------2---2---4-----------------------|

Pre-Solo

D|---------------------------------------------------------------------------|
A|11---4---8---6---11---4---8---6---4----------------------------------------|
F|11---4---8---6---11---4---8---6---4----------------------------------------|
C|11---4---8---6---11---4---8---6---4----------------------------------------|
G|9----2---6---4---9----2---6---4---2----------------------------------------|
D|---------------------------------------------------------------------------|

Solo

D|---------------------------------------------------------------------------|
A|---------------------------------------------------------------------------|
F|11-11-13-13-14-14-13-13-11-11-13-13-11-11-------------------14-13-11-13----|
C|------------------------------------------14-14-14-11-13-11----------------|
G|---------------------------------------------------------------------------|
D|---------------------------------------------------------------------------|



D|---------------------------------------------------------------------------|
A|17-16-14-16-14----14-------11/12b-0h14-14-14-14-14-14-14-0h14-14-14-14-14--|
F|---------------16----16-13-11/12b-0h13-13-13-13-13-13-13-0h13-13-13-13-13--|
C|---------------------------------------------------------------------------|
G|---------------------------------------------------------------------------|
D|---------------------------------------------------------------------------|



D|-----------------------------------------------9---------------------------|
A|14-14------------------------------12--------------------------------------|
F|13-13-----------------------11/12b----12/11b-9-----------------------------|
C|---16-14-13-13-11-11-9-9---------------------------------------------------|
G|---------------------------------------------------------------------------|
D|---------------------------------------------------------------------------|

Final solo

D|------12----------12----------12----------12-------------------------------|
A|12-14----14-12-14----13-12-14----14-12-14----13----------------------------|
F|---------------------------------------------------------------------------|
C|---------------------------------------------------------------------------|
G|---------------------------------------------------------------------------|
D|---------------------------------------------------------------------------|

Final chords

D|---------------------------------------------------------------------------|
A|11--11--11--8--------------------------------------------------------------|
F|11--11--11--8--------------------------------------------------------------|
C|11--11--11--8--------------------------------------------------------------|
G|9---9---9---6--------------------------------------------------------------|
D|---------------------------------------------------------------------------|


| /  slide up
| \  slide down
| h  hammer-on
| p  pull-off
| ~  vibrato
| +  harmonic
| x  Mute note
            
Submit corrections

comments powered by Disqus
↑ Back to top | Backyard Babies Tabs for Nomadic. Lyrics for acoustic guitar and electric guitar. 1 Tablatures and chords are parodies/interpretations of the original songs. You may use it for private study, scholarship, research or language learning purposes only