» » »

I Dont Think Its Much Of A Good Work Tabs (ver.1)

Artists:  A B C D E F G H I J K L M N O P Q R S T U V W X Y Z # 

I Dont Think Its Much Of A Good Work Tabs (ver.1)

Backstreet Boys
Rating:
0/5 (0 votes)

Tabs too difficult? Try these video lessons and learn fast.
                SORRY GUYS I MADE THIS ONE UP-

I did pretty a silly job, I made this first and now I am searching for it's song. So, if 
all talented guys out there have a song for it plz mail it to me at 
I think I did'nt work hard for it, it's much of a sad indian type song. I am only a beginner.

e-----------------------------------------------------------|
B-----------------------------------------------------------|
G----2-3-2-------5-3-2-------3-2-0--------------------------|
D-3-----------3-----------2----------3-2-2-0----------------|
A-----------------------------------------------------------|
E-----------------------------------------------------------|

e-----------------------------------------------------------|
B-----------------------------------------------------------|
G---0---------------------0---------------------------------|
D-3---3-2----2-3-2-0----3---3-2----2-3-2-0------------------|
A-----------------------------------------------------------|
E-----------------------------------------------------------|

e-----------------------------------------------------------|
B-----------------2-3-5-3-----------------------------------|
G---2-3-5-3-2---3---------5---------------------------------|
D-3---------------------------------------------------------|
A-----------------------------------------------------------|
E-----------------------------------------------------------|

e-----------------------------------------------------------|
B-----------------------------------------------------------|
G---0--------------------0----------------------------------|
D-3---3-2---3-2-2-0----3---3-2---3-2-2-0--------------------|
A-----------------------------------------------------------|
E-----------------------------------------------------------|

accompany it with the Am Em Dm chords.
            
Tabs too difficult? Try these video lessons and learn fast.




comments powered by Disqus
↑ Back to top | Tablatures and chords are parodies/interpretations of the original songs. You may use it for private study, scholarship, research or language learning purposes only