» » »

All I Have To Give Tabs (ver.7)

Artists:  A B C D E F G H I J K L M N O P Q R S T U V W X Y Z # 

All I Have To Give Tabs (ver.7)

Backstreet Boys
Rating:
0/5 (0 votes)

Hard to play? Try these video lessons and learn fast.
                (Intro3)
Intro to All I Have To Give

Tuning: Standard
Capo 1st fret

      F            G          Am
E---------------------------------------------------|
B-------1---------0--0h1p0--------1----------3------|
G-------2---------0------2--------2----------0------|
D----3---------0----------------2--------2-3--------|
A----------------------------0--------0-------------|
E--1---------3--------------------------------------|

      F            G          Em       F 
E---------------------------------------------------|
B-------1----------0------------0-------------------|
G-------2----------0--0---------0-------------------|
D----3----------0------------2----------------------|
A---------------------------------------------------|
E--1----------3------------0----------1-------------|

Well, this is what I got out of it.
Enjoy!
            
Hard to play? Try these video lessons and learn fast. | Correct




comments powered by Disqus
↑ Back to top | Tablatures and chords are parodies/interpretations of the original songs. You may use it for private study, scholarship, research or language learning purposes only