» » »

32 Ways To Make You Smile Tabs (ver.2)

Artists:  A B C D E F G H I J K L M N O P Q R S T U V W X Y Z # 

32 Ways To Make You Smile Tabs (ver.2)

Backseat Goodbye
Rating:
5/5 (2 votes)

Tabs too difficult? Try these video lessons and learn fast.
                "32 Ways To Make You Smile"

Capo on 7th Fret

Intro
e-----------------------3p2p0-|
B-----3-----3-----3-----------|
G-----0-----0-----0-----------|
D-----------------------------|
A-----------------------------|
E--3-----3-----3-----3--------|

e-----3-----3------3-5p3------------|
B-----3-----3--3/5-------5p3--3h5p3-|
G-----------------------------------|
D-----------------------------------|
A--3-----3--------------------------|
E-----------------------------------|

e-----------------------3p2p0-|
B-----3-----3-----3-----------|
G-----0-----0-----0-----------|
D-----------------------------|
A-----------------------------|
E--3-----3-----3-----3--------|

e-----3-----3--3--|
B-----3-----3--3--|
G--------------0--|
D--------------2--|
A--3-----3-----3--|
E-----------------|

First and Second Verse
e---------------------------|
B-----3-----3-----3-----3---|
G-----0-----0-----0-----0---|
D---------------------------|
A---------------------------|
E--3-----3-----3-----3------|
"You told me 32 ways..."

e---------------------------|
B-----3-----3-----3-----3---|
G-----0-----0-----0-----0---|
D---------------------------|
A--3-----3-----3-----3------|
E---------------------------|
"I did 31 within the first hour..."


Other Verses
e--3--3--|
B--3--3--|
G--0--0--|
D--0--2--|
A--2--3--|
E--3-----|
"You stared blindly while I waited politely..."
            
Tabs too difficult? Try these video lessons and learn fast.




comments powered by Disqus
↑ Back to top | Tablatures and chords are parodies/interpretations of the original songs. You may use it for private study, scholarship, research or language learning purposes only