» » »

Bach Johann Sebastian, Toccata And Fugue Tabs (ver.2)

Artists:  A B C D E F G H I J K L M N O P Q R S T U V W X Y Z # 

Toccata And Fugue Tabs (ver.2)

Bach Johann Sebastian Tabs
Rating:
0/5 (0 votes)
Toccata And Fugue lessons Tabs too difficult? Try these video lessons and learn fast
                Ok, first a bunch of disclaimers.
	I haven't actually listened to this played for quite a while, so  
this whole thing was written from memory about half a year ago.  Luckily,  
this is quite a memorable tune, so I think that it's a fair imitation of  
the original.  Whether or not, it still sounds pretty cool.
	Other stuff: I'm no music major, and so I have no idea what key  
this is really in (Am?).  Also, I don't have a very good grasp of timing,  
so don't take my measure marks too seriously.


	This is one of my absolute favorite pieces in guitar, especially  
since I arranged it myself :) .  One interesting thing to note is the use  
of pedalling - this is where the high E string is played every other note.   
This adds a cool twist to an otherwise simple melody, and yet adds very  
little difficulty to the playing.  I suggest you use it everywhere.
	A playing note: if your guitar (an acoustic, preferably) is any  
good, try not to mute (and, of course, not to hit) any of the strings that  
you are not playing on.  You get this really cool reverb effect,  
especially in the intro. (Well, it works on my guitar at least.)  I also  
suggest you fingerpick this song; it's really hard to get that pick back  
and forth between the 1st and 4th strings.

	Now then, here it is.

~~~ = vibrato
^   = hammer-on or pull-off
/ or \ = slide

|-12^10^12~~~---10^8^7-----------------|---------------------------------|
|----------------------10^9~~~-10~~~---|--5^3^5~~~----0-1----------------|
|--------------------------------------|------------------1-2~~~---------|
|--------------------------------------|---------------------------------|
|--------------------------------------|---------------------------------|
|--------------------------------------|---------------------------------|


|--------------------------------------|-------------------------10-13~~~|
|--------------------------------------|--------------------9-12---------|
|--------------------------------------|---------------7-10--------------|
|--------------------------------------|-----------6-9-------------------|
|-7^5^7~~~---5^3^2^0-------------------|-------5-8-----------------------|
|--------------------4~5~~~------------|-5~4-7---------------------------|


|-12~-10-8-7\5\4-0-4-7-8^10^8-7-5~~~---|-0-5-0-7-0-8-0-5-0-7-0-8-0-10----|
|--------------------------------------|---------------------------------|
|--------------------------------------|---------------------------------|
|--------------------------------------|---------------------------------|
|--------------------------------------|---------------------------------|
|--------------------------------------|---------------------------------|
					^^^^ starting here

I sometimes like to tap these entire three measures (without picking  
anything but the first note).  Also, you can pick the melody notes and  
pull-off to the pedal note.  Or, if you are using a pick and you're really  
good with it, you can pick every single note.  I can't.


|-0-7-0-8-0-10-0-12-0-8-0-10-0-12-0-13-|-0-10-0-12-0-8-0-10-0-7-0-8-0-5-0- 
7-0-4-0-5-|
|--------------------------------------|---------------------------------- 
----------|
|--------------------------------------|---------------------------------- 
----------|
|--------------------------------------|---------------------------------- 
----------|
|--------------------------------------|---------------------------------- 
----------|
|--------------------------------------|---------------------------------- 
----------|

|-0---0---0---0---0---0---0---0--------|-0---0---0---0---0---0---0---0---|
|---5---6---3---5---1---3---0---1------|-------3---0---1-------0---------|
|--------------------------------------|---2---------------2-------1---2-|
|--------------------------------------|---------------------------------|
|--------------------------------------|---------------------------------|
|--------------------------------------|---------------------------------|


That's the intro.  Somewhere else in the song, this little thing comes up:


|-0---0---0---0---0---0---0---0--------|-0---0---0---0---0---0---0---0---|
|---3---1---0---------------0---1------|---------------------------0---1-|
|---------------2---1---2--------------|-----------1---2---1---2---------|
|--------------------------------------|---2---4-------------------------|
|--------------------------------------|---------------------------------|
|--------------------------------------|---------------------------------|

|-0---0---0---0---0---0---0---0--------|-0---0---0---0---0---0-----------|
|---1---3---0---5---3---1-------3------|---1---0-----------0-------------|
|---------------------------2----------|-----------2---1------2----------|
|--------------------------------------|---------------------------------|
|--------------------------------------|---------------------------------|
|--------------------------------------|---------------------------------|


Please notify me of anything wrong or typoed.  If anyone has a better  
version, I'd be glad to see it.  I hope everyone enjoys playing this as  
much as I do...

Luke
            

comments powered by Disqus
↑ Back to top | Bach Johann Sebastian Tabs for Toccata And Fugue. Lyrics for acoustic guitar and electric guitar. Tablatures and chords are parodies/interpretations of the original songs. You may use it for private study, scholarship, research or language learning purposes only