» » »

Ballad Of Grimaldi Tabs (ver.2)

Artists:  A B C D E F G H I J K L M N O P Q R S T U V W X Y Z # 

Ballad Of Grimaldi Tabs (ver.2)

Babyshambles
Rating:
5/5 (1 vote)

Tabs too difficult? Try these video lessons and learn fast.
                Intro - Am Em B7

|------------------------------------|
|--1---------------------------------|
|--2--0----2---2---2-----------------|
|--2--2------1-------1-2--2-0--------|
|-----2--2-------2------------2-0----|
|--------------------------------3---|

Main verse - finger picking through chords Am Em B7

|---------------------------------------------------------------|
|----1---1---1---1----------------------------------------------|
|------2-------2-----0---0---0---0---2---2---2---2--------------|
|--2-------2-----------2-------2-------1-------1---2--2-0-------|
|------------------2-------2-------2-------2--------------2-0---|
|-------------------------------------------------------------3-|

Bridge

chords - B7 C G C B7 into interlude

|--------------|
|--------------|
|--------------|
|-2-0----------|
|------2-0-----|
|----------3---|
            
Tabs too difficult? Try these video lessons and learn fast.




comments powered by Disqus
↑ Back to top | Tablatures and chords are parodies/interpretations of the original songs. You may use it for private study, scholarship, research or language learning purposes only