>
 >
Loyalty Song

Loyalty Song Bass Tabs

Babyshambles - Loyalty Song chords, tabs, tablatures, lyrics

Guitar lessons | Add/correct | Request | Top 50 tabs Artists:  A B C D E F G H I J K L M N O P Q R S T U V W X Y Z 0-9

Loyalty Song Bass Tabs – Babyshambles

CD, Sheet music, Poster

Do you like Loyalty Song? Share with your friends now
Bass TabsChordsTabsUkulele
-------------------------------------------------------------------------------
			     Loyalty Song - Babyshambles
-------------------------------------------------------------------------------


Tuning: Standard

Thank you for enduring the long period of time between my first tab of this song and 
one but here it is, Loyalty Song (not Dong as i rather embarrassingly titled last times 
I trust this is more accurate!!

Intro

G|------------------11-11--11-11---9-9--9-9--9-9--9-9-------|
D|-----9--9--9-9/12--0--12--0--\10-0-10-0-10-0-10-0--------|
A|------10----10--------------------------------------------|x2
E|---10----10-----------------------------------------------|

Followed by:

G|----9--9--9--9--9--9-9\-------------|
D|---10-10-10-10-10-10-10--------------|
A|-------------------------------------|
E|-------------------------------------|



G|------------------------------------------------------------------|
D|------------------------------------------------------------------|
A|----------5---5-3--3-3-3-2-0-2-----------5--5-3--3-3-3-5-7--------|x4
E|--3---3-3------------------------3---3-3--------------------------|

G|----------------------------------------------------------------------------|
D|-------------------------7-7-9-9-10-10-12-12-10-10-9-9----------------------|
A|-------------------10-10-------------------------------9h10-----------------|
E|---5--5-5--5--5-5--------------------------------------------5--5-5--5--5-5-|

G|-----------------------------------------------------------------|
D|-----------------------------------------------------------------|
A|---------------5--5-3--3-3-3-2-0-2---------5--5-3--3-3-3-5-7-----|x6
E|--//\\--3--3-3----------------------3--3-3-----------------------|

G|--------------------------------------------------------------------|
D|-11\----------------------7-7-9-9-10-10-12-12-10-10-9-9-------------|
A|--------------------10-10-------------------------------9h10--------|
E|-----5--5-5--5-5-5--------------------------------------------------|

G|-----------------------------------------------------------------|
D|-----------------------------------------------------------------|
A|------------------1--1-1-1-1-1-1--1--1--1--0-0-0-0-0-0-0~~-------|
E|--5--5-5--5--5-5-------------------------------------------------|

G|------------------------------------------------------------------|
D|------------------------------------------------------------------|
A|----------5---5-3--3-3-3-2-0-2-----------5--5-3--3-3-3-5-7--------|x2
E|--3---3-3------------------------3---3-3--------------------------|

G|--------------------------------------------------------------------------|
D|----------------9-----------------------------------------------------14~-|
A|------------------9-------14--14-------10------------10-10-9-8-7~--12-----|
E|--3--3-3-3/7--7-----/12----------12--8----85~-5/10-----------------------|

G|------------------------|
D|------------------------|
A|--12\5-5-5-5-5-5-5-5-5--|
E|------------------------|

G|------------------------------------------------------------------|
D|------------------------------------------------------------------|
A|----------5---5-3--3-3-3-2-0-2-----------5--5-3--3-3-3-5-7--------|
E|--3---3-3------------------------3---3-3--------------------------|

Play until end and finish on...

G|------------------11-11--11-11---9-9--9-9--9-9---------------|
D|-----9--9--9-9/12--0--12--0--\10-0-10-0-10-0-10-9-7-9-------|
A|------10----10-----------------------------------------------|
E|---10----10---------------------------------------------3~~--|


Thank You


| /  slide up
| \  slide down
| h  hammer-on
| p  pull-off
| ~  vibrato
| +  harmonic
| x  Mute note
===============================================================================





Comments


Popular Babyshambles tabs & chords
There She Goes Bass Tabs
8 Dead Boys Chords
Back From The Dead Chords
Delivery Chords
Lost Art Of Murder 2 Chords
Loyalty Song Chords
Sedative 3 Chords
Fuck Forever 3 Tabs
French Dog Blues Ukulele
Un-bilo Ukulele


Song lyrics



↑ Back to top | Tablatures and chords are parodies/interpretations of the original songs. You may use it for private study, scholarship, research or language learning purposes only
© 2014 AZChords.com Contact us | Privacy policy | DMCA | Add/correct tabs | Request tabs | Top 50 tabs