» » »

I Love You But Youre Green Tabs (ver.1)

Artists:  A B C D E F G H I J K L M N O P Q R S T U V W X Y Z # 

I Love You But Youre Green Tabs (ver.1)

Babyshambles
Rating:
0/5 (0 votes)

Hard to play? Try these video lessons and learn fast.
                I love you (but you're green)Acoustic

Before the intro there this tiny chords sequence

F#/G
Bm,C,D

twice
                                      
e--7----8----10---8---7------3-/-5------------------------------------------|
B--8----10---12---10--8------5-/-7------------------------------------------|
G---------------------------------------------------------------------------|
D---------------------------------------------------------------------------|
A---------------------------------------------------------------------------|
E---------------------------------------------------------------------------|

e--7----8----10---8---7    C D
B--8----10---12---10--8  
G----------------------
D----------------------
A----------------------
E----------------------

G Bm             C  D
I was a troubled teen

G          Bm          C      D
who put an advert in a magazine

       G            Bm           C   D
to the annoyance of my imaginary lover

    G           Bm
she doubted my integrity

    C                D
and this is what she said to me:

 G  Bm           C  D
"Oh, you, you're green

                    G       Bm
you don't know what love means

            C      D
well let me tell you

   G           Bm
it tickles you pink

       C       D
Oh yeah but it likes to hear you scream

G        Bm              C                          D
Fire and damnation, lamentations for the likes of you"


           A
and when she goes

Em          A
just let her go

Em             A
if she said shes going

Em                A
just make sure she goes

              D
Make sure she goes

*Little intro bit*


G Bm             C  D
I was a troubled teen
G          Bm         C          D
Untroubled only in my daydreams
       G             Bm          C   D
to the annoyance of somebody or other
     G             Bm
they doubted my philosophy
     C                 D
now this is what they said to me
G      Bm          C            D
"oh you'll soon be up where you belong
              G                Bm
Because it's blood from broken hearts
                C              D
that writes the words to every song"
 G         Bm         C          D
A beatific smile for beyond the serpants
    G       Bm      C          D
But I, only I, only I...
               F#/G   Bm    
 I can see the serpent
        C      D 
oh you you're green
                     F#/G   Bm    
you don't know what love means
          C    D
Oh let me tell you
G           Bm
Tickles you pink

     C       D
Oh yeah but it likes to hear you scream

G        Bm              C                          D
Fire and damnation, lamentations for the likes of you"




             A
and when she goes

Em          A
just let her go

Em             A
if she said shes going

Em                A
just make sure she goes

              D
Make sure she goes

F#/G
Bm,C,D

twice

e--7----8----10---8---7------3-/-5------------------------------------------|
B--8----10---12---10--8------5-/-7------------------------------------------|
G---------------------------------------------------------------------------|
D---------------------------------------------------------------------------|
A---------------------------------------------------------------------------|
E---------------------------------------------------------------------------|

e--7----8----10---8---7------3-3--------5--------------
B--8----10---12---10--8------5---5---7-----7-----------
G------------------------------------------------------
D------------------------------------------------------
A------------------------------------------------------
E------------------------------------------------------

This i think is exactly right

Thank you
            
Hard to play? Try these video lessons and learn fast. | Correct




comments powered by Disqus
↑ Back to top | Tablatures and chords are parodies/interpretations of the original songs. You may use it for private study, scholarship, research or language learning purposes only