» » »

Babyshambles, Babyshambles Tabs (ver.1)

Artists:  A B C D E F G H I J K L M N O P Q R S T U V W X Y Z # 

Babyshambles Tabs (ver.1)

Babyshambles Tabs
 Rating:
4.2/5 (5 votes)
Babyshambles lessons Tabs too difficult? Try these video lessons and learn fast
1
                -------------------------------------------------------------------------------
-------------------------------------------------------------------------------

Tuning: Standard

Intro  (D = down stroke, U = up stroke)

e|-7-7~----------------------x-|       |--------2--3-3-0---------2~---------|
B|-7-7~----------------------x-|       |-0---1--3--3-3-0--0---1--3~---------|
G|-7-7~----------------------x-|       |-1-0-0--2--0-0-0--1-0-0—-2~---------|
D|-7-7~----9------9-9-9--999-x-| part 2|-2-0-2--0--0-0-0--2-0-2—-0~---------|     
A|-9-9~----9-x34--9-9-9--999-x-|       |-2-0-3-----2-2-0--2-0-3-------------|
E|---------7------7-7-7--777-x-|       |-0-0-0-----3-3-0--0-0-0-------------|
                  D      UDU

Verse

e|-7-7-7----------x-x--7-7-7-------------------|
B|-7-7-7----------x-x--7-7-7-------------------|after you do that a few times
G|-7-7-7--9-9-x-7-x-x--7-7-7--9-9-x-7----------|repeat intro part 2,
D|-9-9-9--9-9-x-7-x-x--9-9-9--9-9-x-7----------|then verse and intro part 2
A|-9-9-9--7-7-x-5-x-x--9-9-9--7-7-x-5----------|
E|-x-x-x----------x-x--x-x-x-------------------|

Then play this

e|-2-2-x-2-2~-3-3-x-5-5--------------------------|
B|-2-2-x-2-2~-3-3-x-5-5—7~-7-7-x-11-11~-\\-------|
G|-3-3-x-3-3~-4-4-x-6-6—7~-7-7-x-11-11~-\\-------|then back to the verse
D|-4-4-x-4-4~-5-5-x-7-7—7~-7-7-x-11-11~-\\-------|
A|-4-4-x-4-4~-5-5-x-7-7—5~-5-5-x--9—-9~-\\-------|
E|-2-2-x-2-2~-3-3-x-5-5--------------------------|

Solo (sorry it’s not accurate)
Use W/Bar

e|---------------------------------------|
B|---------------------------------------|
G|-9^9^9^9^-9^r-9p7-9p7------------------| Just improvise with that :S
D|---------------------------------------|
A|---------------------------------------
E|---------------------------------------|

Then play this until the end

e|----------------------------------------|
B|-----------x----x-----------x---x-------|
G|-----------9^--7^--x--------9^--7^------|
D|--9-9-9-9--x----x--x-9-9-9--x---x-------|
A|--9-9-9-9----------x-9-9-9--------------|
E|--7-7-7-7----------x-7-7-7--------------|

Thats how I play it, again sorry about the solo.


| /  slide up
| \  slide down
| h  hammer-on
| p  pull-off
| ~  vibrato
| +  harmonic
| x  Mute note
===============================================================================
            
Submit corrections

comments powered by Disqus
↑ Back to top | Babyshambles Tabs for Babyshambles. Lyrics for acoustic guitar and electric guitar. 1 Tablatures and chords are parodies/interpretations of the original songs. You may use it for private study, scholarship, research or language learning purposes only