» » »

Babys, Jinetes En El Cielo Tabs (ver.1)

Artists:  A B C D E F G H I J K L M N O P Q R S T U V W X Y Z # 

Jinetes En El Cielo Tabs (ver.1)

Babys Tabs
Rating:
4/5 (3 votes)
Jinetes En El Cielo lessons Tabs too difficult? Try these video lessons and learn fast
                (Intro)
1  ---------------------------------------------|
2  ---------------------------------------------|
3  ---------------------------------------------|
4  ---------------------------------------------|
5  ---0--0--0--2--3--3--3--0--------------------|
6  -0--------------------------0--3--3--3--0--3-|

YOU STOP FOR ABOUT 4 SECONDS NOW U START AGAIN WITH THE BOTTOM


1  -------------------------------------------------|
2  -------------------------------------------------|
3  -------------------------------------------------|
4  ------------------2-2-2-2-----2------------------|
5  ---0-0-0--2-3-3-3----------3---------------------|
6  -0-----------------------------------------------|


YOU STOP FOR ABOUT 4 SECONDS NOW U START AGAIN WITH THE BOTTOM

1  -----------------------------------------------------------------|
2  -----------------------------------------------------------------|
3  --------2-2-2-2--------------------------------------------------|
4  ---2-2-----------0-----------------------------------------------|
5  --------------------3-0----------3-3-3-3---2/3-0-0-0----0--------|
6  -------------------------1-1-1-1----------------------3----------|

THAT IS ABOUT IT U KEEP GOING LIKE THAT
            

comments powered by Disqus
↑ Back to top | Babys Tabs for Jinetes En El Cielo. Lyrics for acoustic guitar and electric guitar. Tablatures and chords are parodies/interpretations of the original songs. You may use it for private study, scholarship, research or language learning purposes only