>
 >
Como Eran Las Cosas

Como Eran Las Cosas Bass Tabs

Babasonicos - Como Eran Las Cosas chords, tabs, tablatures, lyrics

Guitar lessons | Add/correct | Request | Top 50 tabs Artists:  A B C D E F G H I J K L M N O P Q R S T U V W X Y Z 0-9

Como Eran Las Cosas Bass Tabs – Babasonicos

CD, Sheet music, Poster

Do you like Como Eran Las Cosas? Share with your friends now
Bass TabsBass Tabs v2
Intro

G----------------|
D----------------|
A---1-4---3-1----|
E-4-----4-----2-4|

Verse 1

"Creo que es momento para..."
G--------------------|
D--------------------|
A---1-4---3-1--------|
E-4-----4-----2-44-44|

Verse 2

"Que ridiculo es que pienses..."
G------------------------|
D------------------------|
A---1-4---3---44-44-66-66|
E-1-----4---1------------|

Chorus
G-------------------------------------------------------------|
D-------------------------------------------------------------|
A-4444-4444---------------------1111-1111-4444-4444-3333-3333-|
E-----------4444-4444-1111-1111-------------------------------|

------------------------|
------------------------|
-----------3333-3333----|
-1111-1111--------------|

Verse 3

"Entonces deshace el hechizo..."

G----------------|
D----------------|
A---1-4---3-1----|
E-4-----4-----2-4|

Chorus x2

Intro x1

Outro

G--------------------------------|
D--------------------------------|
A------1111-4444------3333-1111--|
E-4444-----------4444-----------2|





Comments


Popular Babasonicos tabs & chords
Charada Chords
Los Calientes Chords
Natural Chords
Puesto 1 Chords
Bien 1 Tabs
Camarin Tabs
Parafinada Tabs
Zumba Tabs
Los Calientes Ukulele
Pobre Duende Ukulele


Song lyrics



↑ Back to top | Tablatures and chords are parodies/interpretations of the original songs. You may use it for private study, scholarship, research or language learning purposes only
© 2014 AZChords.com Contact us | Privacy policy | DMCA | Add/correct tabs | Request tabs | Top 50 tabs