>
 >
The Horse

The Horse Guitar Tabs

A Wilhelm Scream - The Horse chords, tabs, tablatures, lyrics

Guitar lessons | Add/correct | Request | Top 50 tabs Artists:  A B C D E F G H I J K L M N O P Q R S T U V W X Y Z 0-9

The Horse Guitar Tabs – A Wilhelm Scream

CD, Sheet music, Poster

Do you like The Horse? Share with your friends now
Bass TabsTabs
The Horse -  A Wilhelm Scream
Tuning - Drop D


My version of "the horse" Enjoy, LIsten to the song for the majority of the timing!

Keep an eye out for the harmonic ;)
 
/  slide up
 \  slide down
 h  hammer-on
 p  pull-off
 ~  hold note
 +  harmonic
 x  Mute note
 t = Tap
Intro:

e|---------------------------------------------------------------|
B|---------------------------------------------------------------|
G|-------9--1111--------9-1111-----------------------------------|
D|-7-9-7-9--1111--7-9-7-9-1111-7-9-7--44-22-44--2h4--------------|
A|-7-9-7-7--9-9---7-9-7-7-9-9--7-9-7--44-00-22-4---4p2p0---------|
E|-7-9-7----------7-9-7--------7-9-7--44-------------------------|

e|---------------------------------------------------------------|
B|---------------------------------------------------------------|
G|--9--1111--------9-1111-----------2-9-777777-------------------|
D|--9--1111--7-9-7-9-1111-7-9-7--22-x-x-xxxxxx-----4------999----|
A|--7--9-9---7-9-7-7-9-9--7-9-7--00-2-7-555555-44-22-00---777----|
E|-----------7-9-7--------7-9-7----------------44-2--00----------|

e|----------------------------------------------------------|
B|----------------------------------------------------------|
G|--9--1111--------9-1111-----------------------------------|
D|--9--1111--7-9-7-9-1111-7-9-7--44-22-44--2h4--------------|
A|--7--9-9---7-9-7-7-9-9--7-9-7--44-00-22-4---4p2p0---------|
E|-----------7-9-7--------7-9-7--44-------------------------|

e|------------------------------9-9-7-7-5-5-4-4----------------------|
B|----------------------------------------------5-7-5----------------|
G|--9--1111--------9-1111-----------------------------7-6------------|
D|--9--1111--7-9-7-9-1111-7-9-7---------------------------7-7-6-4-44-|
A|--7--9-9---7-9-7-7-9-9--7-9-7-----------------------------------44-|
E|-----------7-9-7--------7-9-7-----------------------------------44-|

Verse:

"i am just waiting in a room...."
                               +
e|---------------------------------------------------------------------|
B|---------------------------------------------------------------------|
G|---------------------------------------------------------------------|
D|-44----44----4--4----00---0--4---------------------------------------|
A|-44----44----4--4----00---0--4---------------------------------------|
E|-44----44----4--4----00---0------------------------------------------|

e|---------------------------------|
B|---------------------------------|
G|---------------------------------|
D|-12-4h7-11-4h7-9-4h7-11-4h7------| Times 16
A|---------------------------------|
E|---------------------------------|

Chorus

"It's another day of fucking up a race horse..."
 
e|-----------------------------------------------------------------|
B|-----------------------------------------------------------------|
G|-----------------------------------------------------------------|
D|-77-777---------77-777-44-------77-777---------------------------|
A|-55-555-444-777-55-555-22-2-444-55-555-444-777-222-222-222-222---|
E|--------444-777-----------2-444--------444-777-222-222-222-222---|

                                                      *****
e|---------------------------------------------------------------|
B|---------------------------------------------------------------|
G|---6-4---4-------6-4---4-------6-4---4-------6-4---------------|
D|-------7---7-6-4-----7---7-6-4-----7---7-6-4-----7--99999------|
A|-0--------------------------------------------------77777------|
E|-0-------------------------------------------------------------|

Verse

"I am just waiting in a room.."

e|---------------------------------|
B|---------------------------------|
G|---------------------------------|
D|-12-4h7-11-4h7-9-4h7-11-4h7------| Times 16 
A|---------------------------------|
E|---------------------------------|

Chorus

"It's another day of fucking up a race horse..."

e|---------------------------------------------------------------------------|
B|---------------------------------------------------------------------------|
G|---------------------------------------------------------------------------|
D|-77-777---------77-777-44-------777-999-------------------------4-4------7-|
A|-55-555-444-777-55-555-22-2-444-555-777-444-222-000-222-444-777-2-2-0----5-|
E|--------444-777-----------2-444---------444-222-000-222-444-777-----0------|

" They follow close to our tail..."

e|---------------------------------------------------------------------------|
B|---------------------------------------------------------------------------|
G|---------------------------------------------------------------------------|
D|---------5-55555555----------------------5-5555555-------------------------|
A|-444-777-3-33333333-4444-22-0000-444-777-3-3333333-4444-22-0000-4444-220000|
E|-444-777------------4444-22-0000-444-777-----------4444-22-0000-4444-220000|

     *****
e|--------------------------|
B|--------------------------|
G|--------------------------|
D|-7-77777-6-4-2-4-2--------|
A|-5-55555-4-2-0-2-0-4444---|
E|-------------------4444---|

Bridge:

   *  *  *  *
e|-------------------------|
B|-------------------------|
G|---9-----9--9h11p9h11----| A who;e bunch of times while it builds up
D|-11-11-11-11-------------|
A|-------------------------|
E|-------------------------|

   ***************************************************************
e|----------------------------------------------------------------------|
B|----------------------------------------------------------------------|
G|----------------------------------------------------------------------|
D|-11--11--11--11---12--12--12--12---14--14--14--14---16--16--16--------|
A|---12--12--12--12---14--14--14--14---16--16--16--16---17--17--17------|
E|----------------------------------------------------------------------|

e|---------------------------------------------------------------------|
B|---------------------------------------------------------------------|
G|---------------------------------------------------------------------|
D|-00000000-00000000-00000000-00000000---------------------------------|
A|-33333333-22222222-11111111-00000000-000000000000000000000-----------|
E|-------------------------------------000000000000000000000-----------|

e|--------------------------------------------------------------------|
B|--------------------------------------------------------------------|
G|--------------------------------------------------------------------|
D|-------0-0-0-------0-0-0--------4-4-4-------4-4-4-------------------|
A|-00000-9-4-7-00000-9-4-7--44444-9-4-7-44444-9-4-7-------------------|
E|-00000-0-0-0-00000-0-0-0--44444-4-4-4-44444-4-4-4-------------------|

e|---------------------------------------------------------------------------|
B|---------------------------------------------------------------------------|
G|---------------------------------------------------------------9-9-11-9-6--|
D|-00000-0--0--0---------0--0--0-----------4-4-4---------4-4-4---x-x-x--x-x--|
A|-00000-12-7--11--00000-12-7--11---44444--9-4-7--44444--9-4-7---7-7-9--7-4--|
E|-00000-0--0--0---00000-0--0--0----44444--4-4-4--44444--4-4-4---------------|

         **********
e|------------------|
B|------------------|
G|------------------|
D|-0-2-4-9999999999-|
A|-0-2-4-7777777777-|
E|-0-2-4------------|

"Lasix. Selenium. Thrush. Rain rot. Premarin.... "

e|-----------------------------|---|---------------------------------------|
B|-----------------------------|---|---------------------------------------|
G|-----------------------------|---|---------------------------------------|
D|-----------------------------|x2-|--777-777-777-777-777-777-777-7-7------|
A|-444444-333333-222222-111111-|---|--555-555-555-555-555-555-555-5-5------|
E|-444444-333333-222222-111111-|---|---------------------------------------|

Outro

e|---------------------------------------------------------------------|
B|---------------------------------------------------------------------|
G|---------------------------------------------------------------------|
D|-9-11-----9-11------7-11---------9-11----9-11------9-11--------------|
A|-7-9--444-7-9--777--9-9--999999--7-9-444-7-8--777--7-9--999999-------|
E|------444------777-------999999------444------777-------999999-------|

     ****         ****          ****
e|-------------------------------------------------------------|
B|-------------------------------------------------------------|
G|-------------------------------------------------------------|
D|--------7------------7-------------7-------------------------|
A|-4-4444-5-7-9-4-4444-5-7-9--4-4444-5-7-9--7--9--2-4----------|
E|-4-4444---7-9-4-4444---7-9--4-4444---7-9--7--9--2-4----------|

""The bastard strangle of ..."
                                                             *******
e|-----------------------------------------------------------------------|
B|-----------------------------------------------------------------------|
G|-----------------------------------------------------------------------|
D|-----------------------------------------7-77777-6-4-2-4-2-6666666-----|
A|-000000000--44444444--00000000--4444444--5-55555-4-2-0-2-0-4444444-----|
E|-000000000--44444444--00000000--4444444--------------------------------|

"Why are we so angry..."

e|---------------------------------------------------------------------------|
B|---------------------------------------------------------------------------|
G|---------------------------------------------------------------------------|
D|--------------------------------------------------------------------666666-|
A|-4444444-2222222-0000000-0000000-44444444-22222222-00000000-0000000-444444-|
E|-4444444-2222222-0000000-0000000-44444444-22222222-00000000-0000000--------|

e|------------------------------|
B|------------------------------|
G|------------------------------|
D|-----2-2-4-4----2-4-----------|
A|-4-4-0-0-2-2--2-----420-------| times 3
E|-4-4--------------------------|

e|-----------------------------------|
B|-----------------------------------|
G|-----------------------------------|
D|-2-4-----2-4-----2-4-----2-4----4--|
A|-----420-----420-----420----420-4--| 
E|--------------------------------4--|

Fin!





Comments


Popular A Wilhelm Scream tabs & chords
Our Ghosts Bass Tabs
Brand New Me, Same Shitty You Tabs
Famous Friends And Fashion Drunks Tabs
Hike Tabs
Jaws 3, People 0 Tabs
Killing It Tabs
Mercy Day For Mr. Vengeance Tabs
Rip 2 Tabs
Route 40 One Six Tabs
Stab Stab Stab Tabs


Song lyrics



↑ Back to top | Tablatures and chords are parodies/interpretations of the original songs. You may use it for private study, scholarship, research or language learning purposes only
© 2014 AZChords.com Contact us | Privacy policy | DMCA | Add/correct tabs | Request tabs | Top 50 tabs