» » »

The Horse Bass tabs (ver.1)

Artists:  A B C D E F G H I J K L M N O P Q R S T U V W X Y Z # 

The Horse Bass tabs (ver.1)

A Wilhelm Scream
Rating:
4/5 (5 votes)

Hard to play? Try these video lessons and learn fast.
                 
 A  W I L H E L M  S C R E A M - T H E  H O R S E
 ------------------------------------------------


   THE HORSE
   
   Tuning: DADG

  Intro

G|--------------------------------|
D|--------------------------------|
A|-------7-99-9------7-99-9-------|
D|--7-9x--------7-9x--------7-9x--|

G|------------------------------|
D|-------------------2-4--------|
A|------0-0-2-2--2-4-----4-2-0--|
D|--4-4-------------------------|

G|---------------------------|
D|---------------------------|
A|--7-99-9------7-99-9-------|
D|---------7-9x--------7-9x--|

G|-----------------------------------------------|
D|-----------------------------------------------|
A|--00-0--2--7--55-555-555-------22--------777x--|
D|-------------------------44-22----000-0--------|

G|---------------------------|
D|---------------------------|
A|--7-99-9------7-99-9-------|
D|---------7-9x--------7-9x--|

G|------------------------------|
D|-------------------2-4--------|
A|------0-0-2-2--2-4-----4-2-0--|
D|--4-4-------------------------|

G|---------------------------|
D|---------------------------|
A|--7-99-9------7-99-9-------|
D|---------7-9x--------7-9x--|

G|---------------------------|
D|---------------------------|
A|--44-22--------------------|
D|--------77-66-44-22-00-22--|

  Verse
  "I Am Just Waiting In A Room..."

    L      R     R     L     R      R
G|--------------------14---------------|
D|--------------16----------16---------| (x2)
A|--9-----16-----------------------16--|
E|-------------------------------------| 

    L      R     R     L     R      R     L      R      R     L      R     R
G|--------------------14-----------------13------------------14---------------|
D|--------------16----------16-------------------------16-----------16--------|
A|--9-----16-----------------------16-----------16------------------------16--|
E|----------------------------------------------------------------------------|

  "I Am Berating Onlookers Now..."

    L     R     R      L     R      R
G|--------------------11---------------|
D|--------------12----------12---------| (x2)
A|--9-----12-----------------------12--|
E|-------------------------------------| 

    L      R     R     L     R      R    L      R      R     L      R     R
G|--------------------11-----------------9------------------11---------------|
D|--------------12----------12------------------------12-----------12--------|
A|--9-----12-----------------------12----------12------------------------12--|
E|---------------------------------------------------------------------------|

G|-------------------------------------------------------------------|
D|-------------------------------------------------------------------|
A|-------------------------------------------------------------------|
D|--44444444444444444444444444444-000000000000000000000000000000000--|

G|-------------------------------------------------------------------|
D|----------------------445-787--------------------------------------|
A|-----------------------------57------------------------------------|
D|--44444444444444444444----------000000000000000000000000000000000--|

  Chorus
  "It's Another Day Of f**king Up A Race Horse..."

G|-----------------------------------------------|
D|-----------------------------------------------|
A|--555-55-5-5----------555-55-5-5-22-2----------|
D|-------------444-777------------------2-444-4--|

G|---------------------------------------------|
D|---------------------------------------------|
A|--555-55-5-5---------------------------------|
D|-------------444-777--222-22-222-22-222--0~--|

  Post-Chorus

G|------------------|
D|------------------| (x3)
A|--4-2-0-2-0-------|
D|------------6-0~--|

G|---------------|
D|---------------|
A|--4-2-0--777x--|
D|---------------|

  Verse
  "I Am Just Waiting In A Room..."

G|-------------------------------------------------------------------|
D|-------------------------------------------------------------------|
A|--------------------------------------------------------------2-0--|
D|--44444444444444444444444444444-00000000000000000000000000000------|

G|-------------------------------------------------------------------|
D|----------------------445-787--------------------------------------|
A|-----------------------------57------------------------------------|
D|--44444444444444444444----------000000000000000000000000000000000--|

  Chorus
  "It's Another Day Of f**king Up A Race Horse..."

G|-----------------------------------------------|
D|-----------------------------------------------|
A|--555-55-5-5----------555-55-5-5-22-2----------|
D|-------------444-777------------------2-444-4--|

G|----------------------------------------------------------|
D|----------------------------------------------------------|
A|--555-5-777-7---------------------------------------------|
D|--------------444-44-222-22-00-000-0-222-22-444-44-777-7--|

G|----------|
D|----------|
A|--2-2-----|
D|------0~--|

  Post-Chorus

G|----------------------------------------------|
D|----------------------------------------------|
A|--5x---------555-55-55------------------------|
D|-----444-777-----------444-44-222-000-00-000--|


G|----------------------------------------------------------------|
D|----------------------------------------------------------------|
A|----------555-55-55---------------------------------------------|
D|--444-777-----------444-44-222-000-00-000-444-44-22-000-00-000--|

G|--------------------------|
D|--------------------------|
A|--55x55x-4-2-0-2-0-4444x--|
D|--------------------------|

  Bridge

G|-----------------------------------------------------|
D|-----------------------------------------------------| (x2)
A|--7~--------------------------9~-----7~----5~--------|
D|-------2~----6~----~7----------------------------7~--|

G|--------------------------|
D|--------------------------|
A|--7~--9~------------------|
D|----------4~---44x---44x--|

G|--------------------------|
D|--------------------------|
A|--7~--9~------------------|
D|----------7~---77x---77x--|

G|--------------------------|
D|--------------------------|
A|--7~--9~------------------|
D|----------9~---99x---99x--|

G|-----------------------------------------------------------------------------------|
D|-----9~--77777770-66666660-55555550-44444440-33333330-22222220-111111110-00000000--|
A|--9~-------------------------------------------------------------------------------|
D|-----------------------------------------------------------------------------------|

G|--------------------------------------------------------|
D|-------------------------------------------------9------|
A|---------4------------4------------4----------7---7-9~--|
D|--0000-0---0---0000-0---0---4444-4---4---4444-----------|


G|-----------------------------------------------------|
D|-----------------------------------------------------|
A|---------4------------4------------4------------4----|
D|--0000-0---0---0000-0---0---4444-4---4---4444-4---4--|

G|---------------------------------------------------------|
D|------------2-4--------2-4---------2-4-------------------|
A|--555-5-55-----------------0000000-----2222222222222222--|
D|----------------444444-----------------------------------|

G|---------------------------------------|
D|-------------------------------99999x--|
A|---------------------------------------|
D|--444444444-77777777-999999999---------|

  "Lasix. Selenium..."

G|-----------------------------------------------|
D|-----------------------------------------------| (x2)
A|-----------------------------------------------|
D|--444-444-44-333-333-33-222-222-22-111-111-11--|

G|------------------57---7-------|
D|-------------56-87--797-5------|
A|--55-555-5-7-------------7-5x--|
D|-------------------------------|

G|----------------------------------------------|
D|----------------------------------------------| (x2)
A|--7-9---------7-9---------7-9-----------------|
D|------444-44------777-77------999-999-99-999--|

G|------------------------------------------|
D|------------------------------7--9--4--2--|
A|--7x--------------------------------------|
D|------4/12x---4/12x---4/12x---------------|

  "The Bastard Strangle Of...." 

G|------------------------------------------|
D|--------------------------------4\-6-7-6--|
A|-----------5-4\-2-4-5---------4-----------|
D|--000-00-0-------------4444-4-------------|

G|-----------------------------------|
D|-----------------------------------|
A|-----------5-4\-2-4-5--------------|
D|--000-00-0-------------4444-4--2~--|

G|--------------------------|
D|--------------------------|
A|--55x55x-4-2-0-2-0-4444x--|
D|--------------------------|

  Outro Bridge
  "Why Are We So Angry?..." 

G|------------------------------------------------------------------------|
D|------------------------------------------------------------------------|
A|---------------------------------------------------------------4444444--|
D|--444444444444444-2222222222222222-000000000000000000000000000----------|

G|------------------------------------------------------------------------|
D|-------242---------------24---------------------------------------------|
A|-----24---24----------245--------------21----------------------4444444--|
D|--444-------44444-2222-----2222222-0000--042100000000000000000----------|

  Outro

G|------------------------------|
D|-------------------2-4--------| (x3)
A|------0-0-2-2--2-4-----4-2-0--|
D|--4-4-------------------------|

G|-------------|
D|--2-4--------| (x4)
A|------4-2-0--|
D|-------------|

  End

G|------|
D|------|
A|------|
D|--4~--|



I'm not sure about this bass tapping, but it's the best tapping that I could listening.

Legend Tab

| /  slide Up
| \  slide Down
| h  Hammer-On
| p  Pull-Off
| ~  vibrato
| x  Mute Note

Oscar Olarte/rufiopunkrock
            
Hard to play? Try these video lessons and learn fast. | Correct




comments powered by Disqus
↑ Back to top | Tablatures and chords are parodies/interpretations of the original songs. You may use it for private study, scholarship, research or language learning purposes only