» » »

Avril Lavigne, Stop Standing There Bass tabs (ver.1)

Artists:  A B C D E F G H I J K L M N O P Q R S T U V W X Y Z # 

Stop Standing There Bass tabs (ver.1)

Avril Lavigne Tabs
 Rating:
4/5 (4 votes)
Stop Standing There lessons Tabs too difficult? Try these video lessons and learn fast
1
                Avril Lavigne
Stop Standing There
Goodbye Lullaby
2011 RCA Records

Tuning: Standard EADGBe

Key: C


Intro Drumbeats
G|---
D|---
A|---
E|-3-


Verses:

All This Talking to you...
     C        Em       Am      G
G|------5-|------4-|--------|-----|
D|----5---|----2---|------7-|-----|
A|-3------|--------|----7---|-----|
E|--------|-0------|-5------|-3-3-|


All this thinking of you
        C               Em              Am             G
G|------5--5-0-5|------4--4-0-4-|---------------|------------|
D|----5---------|----2----------|------7--7-5-7-|------------|
A|-3------------|---------------|----7----------|------10-10-|
E|--------------|-0-------------|-5-------------|-3-3--------|


Chorus: x2
                 C                                  G
G|-----------------------------5---|---------------------------------|
D|---2-----------------------5---5-|-----------------------------5---|
A|-3---3-3-3-3-3-3-3-3-3-3-3-------|---2-----------------------5---5-|
E|---------------------------------|-3---3-3-3-3-3-3-3-3-3-3-3-------|

                 Am                                  F
G|-----------------------------2---|---------------------------------|
D|---2-----------------------2---2-|-----------------------------3---|
A|-0---0-0-0-0-0-0-0-0-0-0-0-------|---0-----------------------3---3-|
E|---------------------------------|-1---1-1-1-1-1-1-1-1-1-1-1-------|


Bridge:

stop Standing here...
    G   Am     F
G|----|----|-------|
D|----|----|-------|
A|-10-|-12-|-8---8-|
E|----|----|-------|

Stop acting like you don't care..
   Am   G     F
G|----|---|-------|
D|-7--|-5-|-3---3-|
A|----|---|-------|
E|----|---|-------|

Stop being scared..
          G                 Am                        F
G|-----------------|-----------------|---------------------------------|
D|-----------------|-----------------|---------------------------------|
A|-----------------|-----------------|---------------------------------|
E|-3-3-3-3-3-3-3-3-|-5-5-5-5-5-5-5-5-|-1-1-1-1-1-1-1-1-1-1-1-1-1-1-1-1-|

Stop acting like you don't care..
          Am                 G                          F
G|-----------------|-----------------|------------------------------10----|
D|-----------------|-----------------|---------------------------10----10-|
A|-----------------|-----------------|-----------------8-8-8-8-8----------|
E|-5-5-5-5-5-5-5-5-|-3-3-3-3-3-3-3-3-|-1-1-1-1-1-1-1-1--------------------|

(Repeat Chorus twice)


Outro:
Who I Am, Who I am
     C        Em       Am     G
G|------5-|------4-|--------|---
D|----5---|----2---|------7-|---
A|-3------|--------|----7---|---
E|--------|-0------|-5------|-3-
            
Submit corrections

comments powered by Disqus
↑ Back to top | Avril Lavigne Bass for Stop Standing There. Lyrics for acoustic guitar and electric guitar. 1 Tablatures and chords are parodies/interpretations of the original songs. You may use it for private study, scholarship, research or language learning purposes only