» » »

Sippin On Sunshine Bass tabs (ver.1)

Artists:  A B C D E F G H I J K L M N O P Q R S T U V W X Y Z # 

Sippin On Sunshine Bass tabs (ver.1)

Avril Lavigne
Rating:
0/5 (0 votes)

Hard to play? Try these video lessons and learn fast.
                Avril Lavigne
Sippin On Sunshine
Avril Lavigne
2013 Epic Records

Key: G

Tuning: Standard EADG


Intro: Idle


Verses:

Boy you're looking to fly harder than july
G|-----------------------5-----------|
D|-----5---------------5-------------|
A|---5---5--------2--3-----3-3-3--5--|
E|-3-------3-3-3---------------------|

-Stay forever in a day sippin on sunshine
G|-----9--------12------7-------------|
D|---9----------------7----------12\7-|
A|-7-----7-7-7------5-----5-5-5-------|
E|------------------------------------|


Refrain:

Down at the beach you're holding my hand
G|-----------------------5-----------|
D|-----5---------------5-------------|
A|---5---5--------2--3-----3-3-3--5--|
E|-3-------3-3-3---------------------|


-waves crashing in the shore
G|-----9--------12------7-----|
D|---9----------------7-------|
A|-7-----7-7-7------5-----5-5-|
E|----------------------------|


Choruses:
Hey, what a beautiful day
G|--------------|
D|-----9-10--12-|
A|-10-----------|
E|--------------|

-taste, nothing but a good time
G|------------------------|
D|-14--14--12--12-12-10-9-|
A|------------------------|
E|------------------------|

Oh, don't got nowhere to go
G|--------------|
D|-----9-10--12-|
A|-10-----------|
E|--------------|

-flow, yeah we're living the life
G|------------------------|
D|-14--14--12--12-12-10-9-|
A|------------------------|
E|------------------------|

-hey oh hey oh hey oh
G|-----------------------------------|
D|---------------------5/8-----------|
A|-------------2-2-3-3-----3-3-3-5-5-|
E|-3-3-3-3-3-3-----------------------|

G|-------------------------|
D|-------------------------|
A|-7-7---7-7-7---7-5-5-5-5-|
E|-----0-------0-----------|


Interlude: Piano then
G|-----------------------5-----------|
D|-----5---------------5-------------|
A|---5---5--------2--3-----3-3-3--5--|
E|-3-------3-3-3---------------------|

G|-----9--------12------7-----|
D|---9----------------7-------|
A|-7-----7-7-7------5-----5-5-|
E|----------------------------|
            
Hard to play? Try these video lessons and learn fast. | Correct




comments powered by Disqus
↑ Back to top | Tablatures and chords are parodies/interpretations of the original songs. You may use it for private study, scholarship, research or language learning purposes only