» » »

Avril Lavigne, Push Bass tabs (ver.1)

Artists:  A B C D E F G H I J K L M N O P Q R S T U V W X Y Z # 

Push Bass tabs (ver.1)

Avril Lavigne Tabs
 Rating:
4/5 (4 votes)
Push lessons Tabs too difficult? Try these video lessons and learn fast
                Avril Lavigne
Push
Goodbye Lullaby
2011 RCA Records

Key: Bb

Tuning: Standard EADG


Intro: Drumbeats


Verse 1:  Been seeing to much of you lately...
         Eb                 Bb
G|-----------------|-----------------|
D|-----------------|-----------------|
A|-6-6-6-6-6-6-6-6-|-1-1-1-1-1-1-1-1-| x3
E|-----------------|-----------------|

Really meant to be and you can find a way to say
         Eb                 F
G|-----------------|-----------------|
D|-----------------|-----------------|
A|-6-6-6-6-6-6-6-6-|-----------------|
E|-----------------|-1-1-1-1-1-1-1-1-|


Chorus: x2, Maybe if you just shut up
         Bb                 F
G|-----------------|-----------------|
D|-----------------|-----------------|
A|-1-1-1-1-1-1-1-1-|-----------------|
E|-----------------|-1-1-1-1-1-1-1-1-|

         Cm                 Eb
G|-----------------|-----------------|
D|-----------------|-----------------|
A|-3-3-3-3-3-3-3-3-|-6-6-6-6-6-6-6-6-|
E|-----------------|-----------------|


Post Chorus: Love, Love
         Eb                 Bb
G|-----------------|-----------------|
D|-----------------|-----------------|
A|-6-6-6-6-6-6-6-6-|-1-1-1-1-1-1-1-1-| x2
E|-----------------|-----------------|


Verse 2: It's really great..
         Eb                 Bb
G|-----------------|-----------------|
D|-----------------|-----------------|
A|-6-6-6-6-6-6-6-6-|-1-1-1-1-1-1-1-1-| x3
E|-----------------|-----------------|

Really meant to be and you can find a way to say
         Eb                 F
G|-----------------|-----------------|
D|-----------------|-----------------|
A|-6-6-6-6-6-6-6-6-|-----------------|
E|-----------------|-1-1-1-1-1-1-1-1-|


(Repeat Chorus)


Bridge:
You and me, we can both start over
          Cm              Bb/D
G|-----------------|-----------------|
D|-----------------|-----------------|
A|-3-3-3-3-3-3-3-3-|-5-5-5-5-5-5-5-5-|
E|-----------------|-----------------|

Just the 2 of us, we can get a little closer
          Eb              Bb/D
G|-----------------|-----------------|
D|-----------------|-----------------|
A|-6-6-6-6-6-6-6-6-|-5-5-5-5-5-5-5-5-|
E|-----------------|-----------------|

So follow me honestly
          Cm              Bb/D
G|-----------------|-----------------|
D|-----------------|-----------------|
A|-3-3-3-3-3-3-3-3-|-5-5-5-5-5-5-5-5-|
E|-----------------|-----------------|

and you will see
          Eb               F
G|-----------------|-----------------|
D|-----------------|-----------------|
A|-6-6-6-6-6-6-6-6-|-8-8-8-8-8-8-8-8-|
E|-----------------|-----------------|


(Repeat Chorus twice)


Outro:

Love love love
   Eb  Bb  Cm Eb
G|---|---|---|---|
D|---|---|---|---|
A|-6-|-1-|-3-|-6-|
E|---|---|---|---|
            
Submit corrections

comments powered by Disqus
↑ Back to top | Avril Lavigne Bass for Push. Lyrics for acoustic guitar and electric guitar. Tablatures and chords are parodies/interpretations of the original songs. You may use it for private study, scholarship, research or language learning purposes only