>
 >
One Of Those Girls

One Of Those Girls Guitar Tabs

Avril Lavigne - One Of Those Girls chords, tabs, tablatures, lyrics

Guitar lessons | Add/correct | Request | Top 50 tabs Artists:  A B C D E F G H I J K L M N O P Q R S T U V W X Y Z 0-9

One Of Those Girls Guitar Tabs – Avril Lavigne

CD, Sheet music, Poster

Do you like One Of Those Girls? Share with your friends now
ChordsChords v2Chords v3TabsUkulele
Avril Lavigne – One Of Those Girls

Beginning:

e|-------------------|
B|-------------------|
G|--x-x-x-x-x-x-x-x--|
D|--x-x-x-x-x-x-x-x--|
A|--x-x-x-x-x-x-x-x--|
E|-------------------|

Intro: x2

e|----------------------------------------------------------------|
B|----------------------------------------------------------------|
G|--6--6--x-x-x-x--8--8---8---8-8---------------------------------|
D|--6--6--x-x-x-x--8--8---8---8-8--4--4--x-x-x-x--4--4---4---4-4--|
A|--4--4--x-x-x-x--6--6---6---6-6--4--4--x-x-x-x--4--4---4---4-4--|
E|---------------------------------2--2--x-x-x-x--2--2---2---2-2--|


Verse: x2 (with palm muting, just listen the song)

e|--------------------|
B|--------------------|
G|--6---------3-------|
D|--6----4----3----4--|
A|--4----4----1----4--|
E|-------2---------2--|

continued:

e|-----------------|
B|-----------------|
G|-----------------|
D|--3---4---5---6--|
A|--x---x---x---x--|
E|--1---2---3---4--|


Chorus: x2

e|------------------------------------|
B|------------------------------------|
G|--6---8-----------6---8-------------|
D|--6---8---4---4---6---8---4---8--6--|
A|--4---6---4---4---4---6---4---8--6--|
E|----------2---2-----------2---6--4--|


Intro part: x2

e|----------------------------------------------------------------|
B|----------------------------------------------------------------|
G|--6--6--x-x-x-x--8--8---8---8-8---------------------------------|
D|--6--6--x-x-x-x--8--8---8---8-8--4--4--x-x-x-x--4--4---4---4-4--|
A|--4--4--x-x-x-x--6--6---6---6-6--4--4--x-x-x-x--4--4---4---4-4--|
E|---------------------------------2--2--x-x-x-x--2--2---2---2-2--|


Verse: the same


Chorus: the same


Bridge: x2

e|-----------------|
B|-----------------|
G|----------6------|
D|--8---4---6---6--|
A|--8---4---4---6--|
E|--6---2-------4--|

continued: (something that)

e|-------------------------------------------------------|
B|-------------------------------------------------------|
G|--6---6--6-6-6/8-8--8--8-8\----------------------------|
D|--x---x--x-x-x---x--x--x-x---4----4---4-4--4-4--4-4-4--|
A|--4---4--4-4-4/6-6--6--6-6\--x----x---x-x--x-x--x-x-x--|
E|-----------------------------2----2---2-2--2-2--2-2-2--|
 „She’s one of those girls...”

e|-------------------------------------------------------|
B|-------------------------------------------------------|
G|--6---6--6-6-6/8-8--8--8-8\----------------------------|
D|--x---x--x-x-x---x--x--x-x---4----4---4-4-7--7-7-6-----|
A|--4---4--4-4-4/6-6--6--6-6\--x----x---x-x-x--x-x-x-----|
E|-----------------------------2----2---2-2-5--5-5-4-----|
 „Before you know it she’ll be gone...”             ^ pause for a little 
                                                      moment here


Chorus: x1


End:

e|-------------------------------------------------------|
B|-------------------------------------------------------|
G|--6--6--x-x--x-----------------------------------------|
D|--6--6--x-x--x-4--4--x-x--x-8--8--x-x--x-4--4-4--6--6--|
A|--4--4--x-x--x-4--4--x-x--x-8--8--x-x--x-4--4-4--6--6--|
E|---------------2--2--x-x--x-6--6--x-x--x-2--2-2--4--4--|

e|-------------------------------------------------------|
B|-------------------------------------------------------|
G|--6--6--x-x--x-----------------------------------------|
D|--6--6--x-x--x-4--4--x-x--x-8--8--x-x--x-7--7-7--6--6--|
A|--4--4--x-x--x-4--4--x-x--x-8--8--x-x--x-7--7-7--6--6--|
E|---------------2--2--x-x--x-6--6--x-x--x-5--5-5--4--4--|

e|----------|
B|----------|
G|--6--6-\--|
D|--6--6-\--|
A|--4--4-\--|
E|----------|


Have a good playing! ;)





Comments


Popular Avril Lavigne tabs & chords
03 Complicated Bass Tabs
Anything But Ordinary Bass Tabs
Complicated 1 Bass Tabs
Sk8er Boi Bass Tabs
Goodbye Chords
Pick Me Up Chords
Slipped Away Chords
When Youre Gone 12 Chords
Adia Tabs
Things I Will Never Say 1 Tabs


Song lyrics



↑ Back to top | Tablatures and chords are parodies/interpretations of the original songs. You may use it for private study, scholarship, research or language learning purposes only
© 2014 AZChords.com Contact us | Privacy policy | DMCA | Add/correct tabs | Request tabs | Top 50 tabs